Song name
# A B C D E F G H I J K L M N O P Q R S T U V W X Y Z

Jay Chou - Zhou Da Xia tab

Jay Chou - Zhou Da Xia (song from the movie Kungfu Dunk)
The tab is from the video http://www.youtube.com/watch?v=dysiwOurUGM&
I think it's the best version of the song but try and see.


Em
1-----------------|
2-----------------|
3--00--22--00--22-|
422--22--22--22---|
5-----------------|
6-----------------|

D
1-----------------|
2-----------------|
3--00--22--00--22-|
400--00--00--00---|
5-----------------|
6-----------------|

C
1-----------------|
2-----------------|
3--00--22--00--22-|
4-----------------|
533--33--33--33---|
6-----------------|

B
1-----------------|
2-----------------|
3------00---------|
4--44------44--22-|
522--22--22--22---|
6-----------------|

x5

Harmonic part

1|--------12-------------12-----------|
2|5---7--------12---12--------7---5---|
3|
4|
5|
6|

Em
1----------------|
2------------3-5-|
3--00--22-2/4----|
422--22----------|
5----------------|
6----------------|

D
1----------------|
2------------3-5-|
3--00--22-2/4----|
400--00----------|
5----------------|
6----------------|

C
1----------------|
2------------3-5-|
3--00--22-2/4----|
4----------------|
533--33----------|
6----------------|

B
1----------------|
2----------------|
3------00----20--|
4--44-----4-4--2-|
522--22----------|
6----------------|


Enjoy!!
Tap to rate this tab
 
# A B C D E F G H I J K L M N O P Q R S T U V W X Y Z