Song name
# A B C D E F G H I J K L M N O P Q R S T U V W X Y Z

Jay Chou - Tui Hou tab

Tui Hou (RETREAT)
Jay Chou
Tabbed By Dennis Kwan


Verse
|----------------3-|------------------0-|----0-0-0---------|------------------------|
|----3-3-3-1-0-1---|----3-3-3-1-0-1-3---|----------3-3-3-3-|--1-1-1-1-3-3---1---0---|
|--0---------------|--0-----------------|--0---------------|--------------0---0-----|
|------------------|--------------------|------------------|----0-------------------|
|----3-------------|----0---------------|------------------|------------------------|
|------------------|--------------------|----1-------0-----|------------3-----------|

|------------------|------0-0---------|------------------|------------------------|
|--------------3-3-|--1-3-------------|----3-1-0-1---0-1-|------------------------|
|--0-0-0-----0-----|----------0-0-----|--0---------------|------2~-0-0------0-----|
|----------2-------|------------------|------------2-----|--2/0-------------------|
|--------3---------|--------2-----2-2-|--------0---------|------------------------|
|------------------|------------------|------------------|------0------0-0--------|


|------------------|------------------|----0-0-----0-0---|------0-----------------|
|----0-1-1---1-0-0-|--1-3-3-----3-3-1-|--3-------------3-|--1-3-------3-3~--------|
|--2---------------|--------0-0-------|------------------|----------0-------------|
|------3---3-------|------------------|--------3-3-------|--------0---------------|
|------------------|--------------0---|------------------|------------------------|
|--------------3---|------0-----------|------1-----------|------3-----------------|


|----------------0-|--0---------------|--------------0-0-|--------0-0-3-3-1-------|
|--------3-3-1-3---|--------------3-1-|--0-1-1-3-1-3-----|------------------------|
|------0-----------|----0-0-----0-----|------------------|------0-----------------|
|----2-------------|------------------|------------------|----2-------------------|
|--3---------------|--2-----2-2-------|--0---------------|--2---------------------|
|------------------|------------------|----------------0-|--------------1---------|


|----0-------1-0---|--0---0---0-------|----------5-5-5-----3-3~-|-----------------|
|------3-2-3-------|----3-------3-1---|--1-1-0-1-----------3-3~-|-----------------|
|------------------|--------0---------|-------------------------|-----------------|
|------------------|------------------|------------------5------|-----------------|
|------------------|----0-------------|----------------5--------|-----------------|
|--1-3-------0---0-|------------1---1-|------------3-3----------|-----------------|

Chorus
|--------------------3-|-------------------0-|----0-0-0-------0-1-0-0-0-----------|
|----3-3-3-1-0-1-3-----|----3-3-3-1-0-1-3----|----------3-2-3-----------3---------|
|--0-------------------|--0------------------|--0---------------------------------|
|----------------------|---------------------|------------------------------------|
|----3---3---3-----3---|----0---0---0-----0--|------------------------------------|
|----------------------|---------------------|----1---1---1---1-1-3---3-----------|


|-----------------------------------3--------------------0-7-8--------------------|
|----1-3-3--------3-3-3-1-0-1-3----------3-3-3-1-0-1-3----------------------------|
|--------------0-----------------------0------------------------------------------|
|---------------------------------------------------------------------------------|
|-----------------3---3---3-----3--------0---0---0-----0-----8-8------------------|
|----3-----3-3--------------------------------------------------------------------|


|--5-7-8-------0-0---------------------0------------------------------------------|
|---------1-1-------3-1-3-3--1-------3-1------------------------------------------|
|----------------------------------0---0------------------------------------------|
|------0-------------------------2-----2------------------------------------------|
|------------------------------3-------3------------------------------------------|
|---------------------------------------------------------------------------------|
Tap to rate this tab
# A B C D E F G H I J K L M N O P Q R S T U V W X Y Z