Song name
# A B C D E F G H I J K L M N O P Q R S T U V W X Y Z

Jay Chou - Yang Guang Zhai Nan tab

Help us improve GuitareTab! Take a short survey!
Jay Chou (周杰倫) - 我很忙 - 04 - 阳光宅男 (Yang Guang Zhai Nan)


Tabbed by: Andrew Ho (andrew_ho_18@hotmail.com)

Standard tuning

A/G# - 476xxx
E/Eb - x698xx 


Intro: E - B - C#m-A - B

Guitar 1
e|---------------------------------------------|
B|---9-9-9-9-9-9-9-9-10-10-10-10-10-10-10-10---|
G|----9-9-9-9-9-9-9-9--9--9--9--9--8--8--9--9--|
D|---------------------------------------------|
A|---------------------------------------------|
E|---------------------------------------------|

e|---------------------------------------------|
B|---9-9-9-9-10-10-10-10-7-7-7-7---------------|
G|----9-9-9-9--9--9--9--9-9-9-9-9-8------------|
D|---------------------------------------------|
A|---------------------------------------------|
E|---------------------------------------------|

Guitar 2
e|-------------------------------------------------------------------|
B|-------------------------------------------------------------------|
G|-------------------------------------------------------------------|
D|--6-6-6-6-9-9-9-9-7-7-7-7-6-6-6-6-4-4-4-4-7-7-7-7-6-6-6-6-4-4-4-4--|
A|-------------------------------------------------------------------|
E|-------------------------------------------------------------------|

e|-------------------------------------------------------------------|
B|-------------------------------------------------------------------|
G|-------------------------------------------------------------------|
D|--6-6-6-6-9-9-9-9-7-7-7-7-6-6-6-6-4-4-4-4-4-4-4-4-4-4-4-4-4-4-4-4--|
A|-------------------------------------------------------------------|
E|-------------------------------------------------------------------|


Verse:
        E
Yao shi gua yao dai pi jia cha hou mian kou dai
             B
Hei kuang de yan jing you ji qian du / lai hai bian chuan xi zhuang ku
C#m            A
Ta bu zai hu / wo que xiang ku
B
You dian wu zhu ta de yang zi / xiang gang chu tu de wen wu

E
Ta kao rou jing ran hui / zi dai shui hu
            B
Xie xin shi yong jiang hu

Zou qi lu yi bu zhu yi jiu zhuang shu
C#m               A
Wo bu xiang shu / jiu suan xin ku
B
Wo ye yao deng wo ye bu neng / rang ni zai zou xun chang lu


Prechorus:
C#m         B           A      A/G#
Wo jue ding cha shou ni de ren sheng
     F#m                                     Bsus - B
Dang ni de shi shang gu wen / bie shou ni bu neng


Chorus:
            C#m
Rang wo men cheng zhe yang guang
A                      B            E - E/Eb
Hai shang chong lang / xi yin ta mu guang
          C#m
Bu yao pa lu chu xiong tang
A                 B                E - E/Eb
Liu yi dian han / ni cheng le xing nan

            C#m
Rang wo men cheng zhe yang guang
A                   B               E
Kan zhe yuan fang / bie dang lu ren jia
E/Eb            C#m
Rang mei nv que yang
                A
Kao zai ni jian bang
                B                  E - E/Eb
Wo wei xiao zai ni pang bian cheng san


C#m - A - B - E-E/Eb

e|-----------12-12-----------12-12--------11----12------------------------|
B|--------12--------------12--------12-14----12----12-10-12---------------|
G|--13h14-----------13h14-------------------------------------------------|
D|------------------------------------------------------------------------|
A|------------------------------------------------------------------------|
E|------------------------------------------------------------------------|

C#m - A - B - B
                                                         |--palm-muted--| 
e|-----------12-12-----------12-12----------------------------------------|
B|--------12--------------12----------------------------------------------|
G|--13h14-----------13h14-----------11s13-14-13-14-13-11------------------|
D|--------------------------------------------------------4s6-7-6-7-6-4~--|
A|------------------------------------------------------------------------|
E|------------------------------------------------------------------------|



Verse:
          E
Oh dui le dui nv sheng yong xin teng
                                  B
Yue hui yao deng / jiang xiao hua bu neng men

Bie tai leng / xiang wo yi yang jiu gang hao
C#m             A
Dui ai de ren / jie wen yao shen
B
Yong bao yao zhen

Lai dian hua xian shi / gei ge tian mi de ni cheng


e|--12----12----12----12----12----12----12----12-----|   | 
B|-----12----12----12----12----12----12----12----12--|   | 
G|---------------------------------------------------|   | 
D|---------------------------------------------------|   | 
A|---------------------------------------------------|   | 
E|---------------------------------------------------|   | 
                                                         | (Background lead)
e|--11----11----11----11----11----11----11----11-----|   | 
B|-----12----12----12----12----12----12----12----12--|   | 
G|---------------------------------------------------|   | 
D|---------------------------------------------------|   | 
A|---------------------------------------------------|   | 
E|---------------------------------------------------|   |     x2 

           E
Chuan zhuo yao ge xing

Zhe zhi shi gang gang ru men
            B
Jie xia lai ni hai yao hui tan qin hui xie ge hui shuang jie gun
C#m                A
Tou nao qing chu / bu yao mi hu
B
Wo yao jiang ni che di gai zao / ji yin chong zu da bian shen


Prechorus:
C#m         B           A      A/G#
Wo jue ding cha shou ni de ren sheng
     F#m                                     Bsus - B
Dang ni de shi shang gu wen / bie shou ni bu neng


Chorus/Outro:
            C#m
Rang wo men cheng zhe yang guang
A                      B            E - E/Eb
Hai shang chong lang / xi yin ta mu guang
          C#m
Bu yao pa lu chu xiong tang
A                 B                E - E/Eb
Liu yi dian han / ni cheng le xing nan

            C#m
Rang wo men cheng zhe yang guang
A                   B               E
Kan zhe yuan fang / bie dang lu ren jia
E/Eb            C#m
Rang mei nv que yang
                A
Kao zai ni jian bang
                B                  E - E/Eb
Wo wei xiao zai ni pang bian cheng san


C#m
Rang wo men cheng zhe yang guang
A                      B            E - E/Eb
Hai shang chong lang / xi yin ta mu guang
          C#m
Bu yao pa lu chu xiong tang
A                 B                E - E/Eb
Liu yi dian han / ni cheng le xing nan

            C#m
Rang wo men cheng zhe yang guang
A                   B               E
Kan zhe yuan fang / bie dang lu ren jia
E/Eb            C#m
Rang mei nv que yang
                A
Kao zai ni jian bang
                B                  E - E/Eb
Wo wei xiao zai ni pang bian cheng san


C#m - A - B - C#m-G#m-A - B - E


End on E
Related for Yang Guang Zhai Nan tab