Song name
# A B C D E F G H I J K L M N O P Q R S T U V W X Y Z

Jay Chou - Hua Hai tab

Jay Chou HUA HAi Full Version 


e|0-2-4-7-7~----4-2-0-2-4-----0-2-4-11-12~---12-11-9-7-9-7-----0-2-4-7-7~----|
B|---------------------------------------------------------------------------|
G|---------------------------------------------------------------------------|
D|---------------------------------------------------------------------------|
A|---------------------------------------------------------------------------|
E|---------------------------------------------------------------------------|

e|4-2-0-2-0-----0-2-4-7-0-----0-0-------0------------------------------------|
B|--------------------------------4-2-4--------------------------------------|
G|---------------------------------------------------------------------------|
D|---------------------------------------------------------------------------|
A|---------------------------------------------------------------------------|
E|---------------------------------------------------------------------------|


e|4-2-0-2-0-----0-2-4-7-0-----0-0-------0------------------------------------|
B|--------------------------------4-2-4--------------------------------------|
G|---------------------------------------------------------------------------|
D|---------------------------------------------------------------------------|
A|---------------------------------------------------------------------------|
E|---------------------------------------------------------------------------|


e|4-2-0-2-0-----0-2-4-7-0-----0-0-------0------------------------------------|
B|--------------------------------4-2-4--------------------------------------|
G|---------------------------------------------------------------------------|
D|---------------------------------------------------------------------------|
A|---------------------------------------------------------------------------|
E|---------------------------------------------------------------------------|

e|4-2-0-2-0-----0-2-4-7-0-----0-0-------0------------------------------------|
B|--------------------------------4-2-4--------------------------------------|
G|---------------------------------------------------------------------------|
D|---------------------------------------------------------------------------|
A|---------------------------------------------------------------------------|
E|---------------------------------------------------------------------------|


e|4-2-0-2-0-----0-2-4-7-0-----0-0-------0------------------------------------|
B|--------------------------------4-2-4--------------------------------------|
G|---------------------------------------------------------------------------|
D|---------------------------------------------------------------------------|
A|---------------------------------------------------------------------------|
E|---------------------------------------------------------------------------|


e|4-2-0-2-0-----0-2-4-7-0-----0-0-------0------------------------------------|
B|--------------------------------4-2-4--------------------------------------|
G|---------------------------------------------------------------------------|
D|---------------------------------------------------------------------------|
A|---------------------------------------------------------------------------|
E|---------------------------------------------------------------------------|

e|4-2-0-2-0-----0-2-4-7-0-----0-0-------0------------------------------------|
B|--------------------------------4-2-4--------------------------------------|
G|---------------------------------------------------------------------------|
D|---------------------------------------------------------------------------|
A|---------------------------------------------------------------------------|
E|---------------------------------------------------------------------------|


e|4-2-0-2-0-----0-2-4-7-0-----0-0-------0------------------------------------|
B|--------------------------------4-2-4--------------------------------------|
G|---------------------------------------------------------------------------|
D|---------------------------------------------------------------------------|
A|---------------------------------------------------------------------------|
E|---------------------------------------------------------------------------|


e|4-2-0-2-0-----0-2-4-7-0-----0-0-------0------------------------------------|
B|--------------------------------4-2-4--------------------------------------|
G|---------------------------------------------------------------------------|
D|---------------------------------------------------------------------------|
A|---------------------------------------------------------------------------|
E|---------------------------------------------------------------------------|

e|4-2-0-2-0-----0-2-4-7-0-----0-0-------0------------------------------------|
B|--------------------------------4-2-4--------------------------------------|
G|---------------------------------------------------------------------------|
D|---------------------------------------------------------------------------|
A|---------------------------------------------------------------------------|
E|---------------------------------------------------------------------------|


e|4-2-0-2-0-----0-2-4-7-0-----0-0-------0------------------------------------|
B|--------------------------------4-2-4--------------------------------------|
G|---------------------------------------------------------------------------|
D|---------------------------------------------------------------------------|
A|---------------------------------------------------------------------------|
E|---------------------------------------------------------------------------|


e|4-2-0-2-0-----0-2-4-7-0-----0-0-------0------------------------------------|
B|--------------------------------4-2-4--------------------------------------|
G|---------------------------------------------------------------------------|
D|---------------------------------------------------------------------------|
A|---------------------------------------------------------------------------|
E|---------------------------------------------------------------------------| 

Thk for your support
Tap to rate this tab
# A B C D E F G H I J K L M N O P Q R S T U V W X Y Z