Song name
# A B C D E F G H I J K L M N O P Q R S T U V W X Y Z

Jay Chou - Do Nio tab

Help us improve GuitareTab! Take a short survey!
Jay Chou - Do Nio (Bull Fight)

Xing is so mak

drop d

E  :------------------------|----------------|
B  :------------------------|----------------|
G  :------------------------|----------------|
D  :-3-/5-6-p5-6-p5-6-p5-8-5|-3-5------------|
A  :-3-/5-6-p5-6-p5-6-p5-8-5|-3-5------------|
D  :-3-/5-6-p5-6-p5-6-p5-8-5|-3-5------------|

E  :------------------------|----------------|
B  :------------------------|----------------|
G  :------------------------|----------------|
D  :-3-/5-6-p5-6-p5-6-p5-8-5|-3-5------------|
A  :-3-/5-6-p5-6-p5-6-p5-8-5|-3-5------------|
D  :-3-/5-6-p5-6-p5-6-p5-8-5|-3-5------------|

E  :------------------------|----------------|
B  :------------------------|----------------|
G  :------------------------|----------------|
D  :-3-/5-6-p5-6-p5-6-p5-8-5|-3-5------------|
A  :-3-/5-6-p5-6-p5-6-p5-8-5|-3-5------------|
D  :-3-/5-6-p5-6-p5-6-p5-8-5|-3-5------------|

repeat

then he starts rapping

that is all
Related for Do Nio tab