Song name
# A B C D E F G H I J K L M N O P Q R S T U V W X Y Z

Jay Chou - One Hand Piano tab

-------------------------------------------------------------------------------
                             One Hand Piano (Secret OST) - Jay Chou
-------------------------------------------------------------------------------
Tabbed by:melovestheguita

Tuning: standard

e|-----------------------------------------------------------------------------|
B|-----------3---1---------3---1------------3----1------------0--1-------------|
G|--------0-------------0---------------0-----------------0--------------------|
D|------------------2--------------3------------------0------------------------|
A|----3------------------------------------------------------------------------|
E|-----------------------------------------------------------------------------|

e|-----------------------------------------------------------------------------|
B|-----------3---1---------3---1------------3----1------------0--1-------------|
G|--------0-------------0---------------0-----------------0--------------------|
D|------------------2--------------3-----------------0-------------------------|
A|----3------------------------------------------------------------------------|
E|-----------------------------------------------------------------------------|

e|------------------------------------------0----------------0-----------------|
B|----------3----1---------3---1---------------3-----------------3-------------|
G|--------0-------------0--------------2----------------2----------------------|
D|------------------2---------------3---------------4--------------------------|
A|----3------------------------------------------------------------------------|
E|-----------------------------------------------------------------------------|

e|---------------1-----0---------------1-----0------------------0--------------|
B|---------1---------------------1------------------------1-------------3------|
G|----0---------------------1----------------------0---------------------------|
D|-----------------------------------------------------------------------------|
A|-----------------------------------------------------------------------------|
E|-----------------------------------------------------------------------------|

e|---------------------------------------------------------------------------|
B|------------------3-------1-------1----------------------------------------|
G|----------0----------------------------------------------------------------|
D|----3----------------------------------------------------------------------|
A|----------------------------------3----------------------------------------|
E|---------------------------------------------------------------------------|



************************************

| /   slide up
| \   slide down
| h   hammer-on
| p   pull-off
| ~   vibrato
| +   harmonic
| x   Mute note
| b   Bend
| pb  Pre-bend
| br  Bend release
| pbr Pre-bend release
| brb Bend release bend

************************************
Tap to rate this tab
 
# A B C D E F G H I J K L M N O P Q R S T U V W X Y Z