Song name
# A B C D E F G H I J K L M N O P Q R S T U V W X Y Z

Jay Chou - Ting Ma Ma Da Hua tab

This is overly repeat melody in the background also the chorus.


e-------------------------------------------------|
b--3---1---4---3-----------6---6---4---1----------|
g------------------3---3--------------------------|
D-------------------------------------------------|
A-------------------------------------------------|
E-------------------------------------------------|


e-------------------------------------------------|
b--3---1---4---3-------------------1--------------|
g------------------3---0---3---3-------3----------|
D-------------------------------------------------|
A-------------------------------------------------|
E-------------------------------------------------|

And repeats in the whole song.
Hope it is right.
Tap to rate this tab
# A B C D E F G H I J K L M N O P Q R S T U V W X Y Z