Guitaretab - guitar tabs
Song name
# A B C D E F G H I J K L M N O P Q R S T U V W X Y Z

Jay Chou - Lang Man Shou Ji tab

Intro

e-------------------------------------------------|
b11h-13-10-6h--8-8--4--6--7--6---4---------------|
g-------------------------------------------------|
D-------------------------------------------------|
A-------------------------------------------------|
E-------------------------------------------------|

e-------------------------1-1-1-------------------|
b11h-13-10-6h--8-8--4----------------------------|
g-------------------------2-2-2-------------------|
D-------------------------------------------------|
A-------------------------0-0-0-------------------|
E-------------------------------------------------|


Verse 1

e-------------1-----------------------------------|
b--------1-3---1--------------1----------4-6----4|
g------3----------3---------3----3----------------|
D----3--------------------3-------------------6---|
A-1------------------------------------6----------|
E----------------------3-------------6------------|
[ Tab from: http://www.guitaretab.com/j/jay-chou/84267.html ]
e-------------------------------1-----------------|
b--------6---4-------------1-3----1------------1--|
g-----8----0------------3------------3------3-----|
D---8-----------------3-------------------3-------|
A-6----------------1------------------------------|
E---------------------------------------3---------|

e---1---------------------------------------------|
b-3--1---------4---6---4------------12-----------|
g-------3-------------0-----------12-------12-----|
D------------------------------12-------12--------|
A-------------6-----------------------------------|
E-----------6---------------10--------------------|

e----------------------------5--3---------5----3--|
b------------------------------------------------|
g----------14-------------7-------------7---------|
D-------12-------12-----8-------------8------0----|
A----12-------12----------------------------------|
E-10-----------------6-------------6--------------|

This is my first tab... but it's not complete... only for the first 1st minute, but it 
sounds nice. Can figure out the rest for yourself.
Related for Lang Man Shou Ji tab