Song name
# A B C D E F G H I J K L M N O P Q R S T U V W X Y Z

Jay Chou - Bu Neng Shuo De Mi Mi tab

Jay Chou - (不能说的秘密) Bu Neng Shuo De Mi Mi


Composer: Jay Chou (周杰倫) (周杰伦)
Lyricist: Vincent Fang (方文山) (方文山)


Notes: Theme song for the movie "Secret"

       Look out for the G/F# in brackets..u can choose to ignore them but it'll sound nicer
       if u play them, but u have to listen carefully for the timing ;)
       Actually they pick in the beginning of the verses but i just put the chords here 
ur
       reference, look at 
http://www.ultimate-guitar.com/tabs/j/jay_chou/bu_neng_shuo_de_mi_mi_tab.htm
       (that's the version 1 tab) for the picking part.


G    - 320033
G/F# - 200033
D    - xx0232
Dsus - xx0233


Intro (Piano):

    G     -     G/F#     -     G     -     G/F#

e|--------------------------|--------------------------|
B|--------------------------|--------------------------|
G|-----0--0--0--------------|-----0--0--0-----2--2--2--| x2
D|-----------------4--4--4--|--------------------------|
A|--------------------------|--------------------------|
E|--3-----------3-----------|--3-----------3-----------|


Verse:
     G
leng ka fei li kai le bei dian
                     (G/F#)   Em
wo ren zhu de qing xu zai hen hou mian
    C
pin ming xiang wan hui de cong qian
                                 Dsus - D - Dsus - D
zai wo lian shang yi jiu qing xi ke jian


Verse2:
    G
zui mei de bu shi xia yu tian
                      (G/F#) Em
shi ceng yu ni duo guo yu de wu yan
      C
hui yi de hua mian

zai dang zhe qiu qian
             Dsus - D - Dsus - D
meng kai shi bu tian


Chorus:
                 G
ni shuo ba ai jian jian

fang xia hui zou geng yuan
        (G/F#)  Em
you he bi qu gai bian

yi cuo guo de shi jian

              C
ni yong ni de zhi jian
               Bm
zu zhi wo shuo zai jian
      Em             Am
xiang xiang ni zai shen bian
                    Dsus - D
zai wan quan shi qu zhi qian


                 G
ni shuo ba ai jian jian

fang xia hui zou geng yuan
           (G/F#) Em
huo xu ming yun de qian

zhi rang wo men yu jian

                    C
zhi rang wo men xiang lian
             Bm
zhe yi ji de qiu tian
     Em           Am
piao luo hou cai fa xian
                   D
zhe xing fu de sui pian
            G
yao wo zen me jian


Chorus Outro: (play this in the repeat on verse2, with slight timing difference so 
carefully)

     G

e|----10---8---7~---|-----10---8---7~---|
B|--8----8----------|---8----8----------|
G|------------------|-------------------|
D|------------------|-------------------|
A|------------------|-------------------|
E|------------------|-------------------|

     Em

e|----10---8---7~---|-----10---8---7~---|
B|--8----8----------|---8----8----------|
G|------------------|-------------------|
D|------------------|-------------------|
A|------------------|-------------------|
E|------------------|-------------------|

     C

e|----10---8---7~---|-----10---8---7~---|
B|--8----8----------|---8----8----------|
G|------------------|-------------------|
D|------------------|-------------------|
A|------------------|-------------------|
E|------------------|-------------------|

     D

e|----10---7--------|----10-------------|
B|--8----8-----10~--|--8----8-8---7~----|
G|------------------|-------------------|
D|------------------|-------------------|
A|------------------|-------------------|
E|------------------|-------------------|


(repeat from start)


Outro:

e|--------------------------|--------------------------|
B|--------------------------|-----0--0--0--------------|
G|-----0--0--0-----2--2--2--|-----------------4--4--4--|
D|--------------------------|--------------------------|
A|--------------------------|--------------------------|
E|--3-----------3-----------|--3-----------3-----------|

(slow down)
e|--------------------------|--------------------------|
B|--------------------------|-----0--0--0~-------------|
G|-----0--0--0-----2--2--2--|--------------------------|
D|--------------------------|--------------------------|
A|--------------------------|--------------------------|
E|--3-----------3-----------|--3-----------------------|
Tap to rate this tab
 
# A B C D E F G H I J K L M N O P Q R S T U V W X Y Z