Guitaretab - guitar tabs
Song name
# A B C D E F G H I J K L M N O P Q R S T U V W X Y Z

Jay Chou - Qian Li Zhi Wai tab

Jay Chou - Qian Li Zhi Wai


Intro:

e|---------10------------------------14~--|
B|--10b12------12---10---10--12--10-------|
G|----------------------------------------|
D|----------------------------------------|
A|---------------------------------------|
E|----------------------------------------|

e|---------10-----------------------------|
B|--10b12------12---10---10--12--10-------|
G|----------------------------------------|
D|----------------------------------------|
A|---------------------------------------|
E|----------------------------------------|        x2


D                     A                       Bm              D/F#
Wu yan ru xuan yai* / feng ling ru cang hai / wo deng yan gui lai
G                     D/F#                  Em              A
Shi jian bei an pai / yan yi chang yi wai / ni qiao ran zou kai
D                      A                     Bm              D/F#
Gu shi zai cheng wai / nong wu shan bu kai / kan bu qing dui bai
G                    D/F#                    Em             A
Ni ting bu chu lai / feng sheng bu cun zai / shi wo zai gan kai


Prechorus:
C                                         G
Meng xing lai / shi shui zai chuang tai / ba jie ju da kai
Bb                            A
Na bo ru chan yi de wei lai / jing bu qi shui lai zhe


Chorus:
   D                A                 Bm              D/F#
Wo song ni li kai / qian li zhi wai / ni wu sheng hei bai
G                  D/F#            Em                    A
Chen mo nian dai / huo xu bu gai / tai yao yuan de xiang ai
   D                A                   Bm             D/F#
Wo song ni li kai / tian yai* zhi wai / ni shi fou hai zai
G                   D/F#               Em          A           D
Qing sheng he lai / sheng si nan cai / yong yi sheng / qu deng dai


e|---------10------------------------14~--|
B|--10b12------12---10---10--12--10-------|
G|----------------------------------------|
D|----------------------------------------|
A|---------------------------------------|
E|----------------------------------------|

e|---------10-----------------------------|
B|--10b12------12---10---10--12--10-------|
G|----------------------------------------|
D|----------------------------------------|
A|---------------------------------------|
E|----------------------------------------|        x2


Wen lei sheng ru ling / xun li hua bai / zhi de yi hang / qing tai

Tian zai shan zhi wai / yu luo hua tai / wo liang xu ban bai
[ Tab from: http://www.guitaretab.com/j/jay-chou/97025.html ]
Wen lei sheng ru ling / xun li hua bai / zhi de yi hang / qing tai

Tian zai shan zhi wai / yu luo hua tai / wo deng ni lai


Verse2:
D                    A                      Bm           D/F#
Yi shen liu li bai / tou ming zhe chen ai / ni wu xia de ai
G                       D/F#                Em              A
Ni chong yu zhong lai / shi hua le bei ai / wo lin shi xian zai
D                       A                         Bm            D/F#
Fu rong shui mian cai / chuan xing ying you zai / ni que bu hui lai
G                    D/F#                 Em                A
Bei sui yue fu gai / ni shuo de hua kai / guo qu cheng kong bai
 

Prechorus:
C                                         G
Meng xing lai / shi shui zai chuang tai / ba jie ju da kai
Bb                            A
Na bo ru chan yi de wei lai / jing bu qi shui lai zhe


Chorus:
   D                A                 Bm              D/F#
Wo song ni li kai / qian li zhi wai / ni wu sheng hei bai
G                  D/F#            Em                    A
Chen mo nian dai / huo xu bu gai / tai yao yuan de xiang ai
   D                A                   Bm             D/F#
Wo song ni li kai / tian yai* zhi wai / ni shi fou hai zai
G                   D/F#               Em          A
Qing sheng he lai / sheng si nan cai / yong yi sheng


   Eb               Bb                Cm              Eb/G
Wo song ni li kai / qian li zhi wai / ni wu sheng hei bai
G#                 Eb/G            Fm                    Bb
Chen mo nian dai / huo xu bu gai / tai yao yuan de xiang ai
   Eb               Bb                  Cm             Eb/G
Wo song ni li kai / tian yai* zhi wai / ni shi fou hai zai
G#                  Eb/G               Fm                      Bb
Qing sheng he lai / sheng si nan cai / yong yi sheng / qu deng dai



e|---------11------------------------15~--|
B|--11b13------13---11---11--13--11-------|
G|----------------------------------------|
D|----------------------------------------|
A|---------------------------------------|
E|----------------------------------------|

e|---------11-----------------------------|
B|--11b13------13---11---11--13--11-------|
G|----------------------------------------|
D|----------------------------------------|
A|---------------------------------------|
E|----------------------------------------|           x2


============================================================================
any comments or if any part of it is wrong pls email me at andrew_ho_18@hotmail.com
Related for Qian Li Zhi Wai tab