Song name
# A B C D E F G H I J K L M N O P Q R S T U V W X Y Z

Jay R - Tattoed On My Mind chords

Highlighted       Show chord diagrams
this is my first full tab so bare with me for any comment just pimp me @ drn_mdr@yahoo.com


A = e ---------|
    b --5------|
    g --6------|
    d ---------|
    a ---------|
    e --5------|

G#m =  e ---------|
       b --4------|
       g --4------|
       d ---------|
       a ---------|
       e --4------|

F#m = e ---------|
      b --2------|
      g --2------|
      d ---------|
      a ---------|
      e --2------|

EM7 = e --4------|
      b --4------|
      g --4------|
      d --6------|
      a --7------|
      e ---------|

AM7 = e --4------|
      b --5------|
      g --6------|
      d ---------|
      a ---------|
      e --5------|

G#m7 = e --3------|
       b --4------|
       g --5------|
       d ---------|
       a ---------|
       e --4------|

B = e ---------|
    b --7------|
    g --8------|
    d ---------|
    a ---------|
    e --7------|

C#m7 = e ---------|
       b --5------|
       g --4------|
       d ---------|
       a --4------|
       e ---------|

C#m7/A = e ---------|
         b --5------|
         g --4------|
         d ---------|
         a ---------|
         e --5------|

A for the solo part 
  = e --9------|
    b --10-----|
    g --9------|
    d x--------|
    a o--------|
    e x--------|

E== e --4------|
    b --5------|
    g --4------|
    d ---------|
    a ---------|
    e ---------|




Intro: A-Abm-F#m-Abm-A-F#m-A-Abm-A

EM7            A
Maybe you soon forget about all
EM7                         A
or maybe youíll miss it like I do
EM7
one thingís for sure:
A
Iím all knocked out
EM7                             A
spend too much time thinking of you

Chorus:
       AM7          A       F#m
And I canít get you out of my dreams
      AM7                 A         F#m
Now I know that youíre the dangerous kind
         AM7         A          F#m
and your smile is tattooed on my mind
      AM7           A       F#m
And I canít get you out of my dreams

EM7                A
Donít wanna write, I donít wanna call,
EM7                         A
- I would not know what to say
EM7                            A
It should be you, thatís how I want it to be
EM7                        A
Tell me you feel the same way

Chorus:
      AM7           A       F#m
And I canít get you out of my dreams
      AM7                 A          F#m
Now I know that youíre the dangerous kind
         AM7         A           F#m
and your smile is tattooed on my mind
      AM7           Abm7       F#m
and I canít get you out of my dreams

Adlib:EM7-A-EM7-A-EM7-A
You may use 4/9 in between EM7 and A @ Gstring

EM7                         C#m7
Oh, yesterday I was feeling safe
EM7                            C#m7
All I do today is trying to be brave
       EM7                          C#m7  E
And no melody can seem to soothe my mind
          F#m           AM7     A          B
And now I curse you for being so sweet and so kind

Chorus:
      AM7           A       F#m
And I canít get you out of my dreams
      AM7                  A        F#m
Now I know that youíre the dangerous kind
         AM7        A          F#m
and your face is tattooed on my mind
      AM7           A       F#m
And I canít get you out of my dreams


EM7                             C#m7/A
Yes I know youíre tatooed on my mind youíre tatooed..

Tap to rate this tab
 
# A B C D E F G H I J K L M N O P Q R S T U V W X Y Z