Song name
# A B C D E F G H I J K L M N O P Q R S T U V W X Y Z

Jay Reatard - Always Wanting More tab

-----------------------------------------------------------------------
       	     ALWAYS WANTING MORE - Jay Reatard
-----------------------------------------------------------------------
tabbed by: Taylor Ford
email: t.f.goodrich@gmail.com

This is a neat little 2-minute diddy in standard tuning.  I'm not 100% 
certain that certain parts of this tab are accurate, but this is my best 
guess so far.  Hope you find it helpful!

Website: http://intheredrecords.com/pages/jay_reatard.html

Lead riff:
e----------6--------8--88-10-101010-8-6------------------------|
B------6--------6-----------------------8-6--------------------|
G----7---7----7---7--------------------------------------------|
D--------------------------------------------------------------|
A--------------------------------------------------------------|
E--------------------------------------------------------------|

e----------6--------8--88-10-101010-8-6-6----------------------|
B------6--------6-----------------------6----------------------|
G----7---7----7---7---------------------7----------------------|
D--------------------------------------------------------------|
A--------------------------------------------------------------|
E--------------------------------------------------------------|

Verse:
A#
Bleeding you dry
C
by leaving you high
D
They always want something more from you
A#
Cutting your throat
C
or telling a joke
D
It never seems clever to be

F#		    F
You could never see

I'm not exactly sure about the chorus, but it might be something like:

A#
Always wanting more

You're always wanting more

You're such a useless bore
				  A
but you're always wanting more

and maybe with something like this in there somewhere:
e--------------------------------------------------------------|
B--------------------------------------------------------------|
G--10----10----10----9-----------------------------------------|
D-----10----10----10-------------------------------------------|
A--------------------------------------------------------------|
E--------------------------------------------------------------|
listen to the song for timing and, er, accuracy.

ThankS!
Tap to rate this tab
# A B C D E F G H I J K L M N O P Q R S T U V W X Y Z