Song name
# A B C D E F G H I J K L M N O P Q R S T U V W X Y Z

Jay Reatard - I Know A Place tab

-------------------------------------------------------------------------------
                             I KNOW A PLACE - Jay Reatard
-------------------------------------------------------------------------------
Tabbed by:papanimes
E-mail:simaobarciagomes@hotmail.com

Tuning:standart

Please rate and comment!

intro
GTR.1(these are just the chords, you have to listent to song to figure it out)
  C                D               E
e|---------------------------------------------------------------------------|
B|---------------------------------------------------------------------------|
G|-5---------------7---------------9-----------------------------------------|
D|-5---------------7---------------9-----------------------------------------|
A|-3---------------5---------------7-----------------------------------------|
E|---------------------------------------------------------------------------|
 |GTR.2                                                                      |
e|---------------------------------------------------------------------------|
B|---0---0---0---0---0---0---0---0---0---0---0---0---0---0---0---0-----------|
G|-5---5---5---5---7---7---7---7---9---9---9---9---9---9---9---7-------------|
D|---------------------------------------------------------------------------|
A|---------------------------------------------------------------------------|
E|---------------------------------------------------------------------------|

 for the verse just play guitar 1 of the intro but with this E

D|-2--|
A|-2--|
E|-0--|

Pre-Chorus 

e|---------------------------------------------------------------------------|
B|---------------------------------------------------------------------------|
G|---------5---5-5-----------------2---2-2-2-2-4---5---5-5-5-5-5-5-----------|
D|-3---3-3-5---5-5-5---5-5-5-5-5-5-2---2-2-2-2-4---5---5-5-5-5-5-5-----------|
A|-3---3-3-3---3-3-5---5-5-5-5-5-5-0---0-0-0-0-2---3---3-3-3-3-3-3-----------|
E|-1---1-1---------3---3-3-3-3-3-3-------------------------------------------|

Chorus (i think it's just singles notes, but it sounds just as good like this)

e|---------------------------------------------------------------------------|
B|---------------------------------------------------------------------------|
G|---------5---5-5-----------------------------------------------------------|
D|-3---3-3-5---5-5-5---7-7-7-7-7-7-------------------------------------------|
A|-3---3-3-3---3-3-5---7-7-7-7-7-7-------------------------------------------|
E|-1---1-1---------3---5-5-5-5-5-5-------------------------------------------|

LYRICS

I know a place
where we can go
to be alone

I know a place
where we can crawl to die

Away
Away from here

And please don't you cry
Whip the tears away from your eyes
If we both weren't so sad
Maybe this thing isn't so bad

Yes we both
we ask what we ask for
Yes we both
we ask what we ask for
today

I know a place
where I can go
to be alone

I know a place
where I can crawl to die

Away
Away from you

And please don't you cry
Whip the tears away from your eyes
If we both weren't so sad
Maybe this thing isn't so bad

Yes we both
we ask what we ask for
Yes we both
we ask what we ask for

Tap to rate this tab
# A B C D E F G H I J K L M N O P Q R S T U V W X Y Z