Song name
# A B C D E F G H I J K L M N O P Q R S T U V W X Y Z

Jay Sean - Down tab

e|---------2---------------2-3-2-------2-3-2-------------2-------------------------|
B|-3-5-3-5---5-3-2-3--------------5-3---------5~-3-5-3-5---5-3-2-3-----------------|
G|----------------------4~-----------------------------------------4~--------------|
D|---------------------------------------------------------------------------------|
A|---------------------------------------------------------------------------------|
E|---------------------------------------------------------------------------------|

e--2-3-2-----2-3-2----------------------------------------------------------------|
B|-------5-3-------5~-------------------------------------------------------------|
G|--------------------------------------------------------------------------------|
D|--------------------------------------------------------------------------------|
A|--------------------------------------------------------------------------------|
E|--------------------------------------------------------------------------------|
Tap to rate this tab
# A B C D E F G H I J K L M N O P Q R S T U V W X Y Z