Song name
# A B C D E F G H I J K L M N O P Q R S T U V W X Y Z

Jay Smith - Never Ever tab

-------------------------------------------------------------------------------
			     Never Ever - Jay Smith
-------------------------------------------------------------------------------
Tabbed by:
Email:

Tuning: DGCFAD

e|--------------------x------------------------0~--x------------------------|
B|--------------------x----------------------3-----x------------------------|
G|--2------2--2-2---2-x-------4b-4b---4brp2--------x------------------------|
D|--2------2--2-2---2-x---------------0------------x-----4brp2-2------------|
A|--0------0--0h4---4-x----------------------------x----------4-------------|
E|--------------------x----------------------------x------------------------|

e|-------xxxx---------x--------0---0-----------0~----0-0--0-0--------------|
B|-------xxxx---------x------/5--/5----------3-------1-1--1-1--------------|
G|--2----xxxx-2-2-2-2-x---------------4brp2----------0-0--0-0-------2------|
D|--2----xxxx-2-2-2-2-x---------------0--------------2-2--2-2-------2------|
A|--0----xxxx-0h4-4-4-x------------------------------0-0--0-0-------0------|
E|-------xxxx---------x----------------------------------------------------|


************************************

| /   slide up
| \   slide down
| h   hammer-on
| p   pull-off
| ~   vibrato
| +   harmonic
| x   Mute note
| b   Bend
| pb  Pre-bend
| br  Bend release
| pbr Pre-bend release
| brb Bend release bend

************************************
Tap to rate this tab
 
# A B C D E F G H I J K L M N O P Q R S T U V W X Y Z