Song name
# A B C D E F G H I J K L M N O P Q R S T U V W X Y Z

Jay-z - Oh My God tab

-------------------------------------------------------------------------------
			     Oh my god - Jay-Z
-------------------------------------------------------------------------------
Tabbed by:  playinlax
Email:  --

Tuning:  standard

Intro / Pre-chorus:
e|---------------------------------------------------------------------|
B|------------------------6-8-9-10-11----------------------------------|
G|------------------5-6-8--------------3--3------6---------------------|
D|------------5-6-8--------------------3--3------6---------------------|
A|----3-4-6-8--------------------------1--1------4---------------------|
E|--6------------------------------------------------------------------|

Verse:
e|-------------------------------------------------------------------|
B|-------------------------------------------------------------------|
G|--3-3---5-5---6-6---5-5---3-3---5-5---6-6---8-8--------------------|
D|--3-3---5-5---6-6---5-5---3-3---5-5---6-6---8-8--------------------|
A|--1-1---3-3---4-4---3-3---1-1---3-3---4-4---6-6--------------------|
E|-------------------------------------------------------------------|

I like to throw this in here (sub 688xxx for x133xxx)
e|--------------------------------------------------------------------|
B|--------------------------------------------------------------------|
G|-----------------------------------------------8-6------------------|
D|---------------------------------------------------8-6-8-8---5--AND-|
A|-------------------------------------------------------8-8---5--SO--|
E|-------------------------------------------------------6-6---3--ON--|
Tap to rate this tab
# A B C D E F G H I J K L M N O P Q R S T U V W X Y Z