Song name
# A B C D E F G H I J K L M N O P Q R S T U V W X Y Z

Jay-z - Run This Town tab

-------------------------------------------------------------------------------
			     Run This Town - Jay-Z
-------------------------------------------------------------------------------

Tabbed by: Mike Bray

Tuning: Standard, Capo 3


Intro/Verse:

| Am | G | Am | F |

Lead:

e|---------------------1-1-1-1-|
B|--------1----3-3-3-3---------|
G|---2-------------------------|
D|-----------------------------|
A|-0----0----0-----------------|
E|-----------------------------|

Chorus:

| G | Am | F | Am |


| /  slide up
| \  slide down
| h  hammer-on
| p  pull-off
| ~  vibrato
| +  harmonic
| x  Mute note
===============================================================================
Tap to rate this tab
# A B C D E F G H I J K L M N O P Q R S T U V W X Y Z