Jay-z - Run This Town tab

Run This Town – Jay-Z

Tabbed from my improv of the song

|----------------3-5-----5-5-6-5-3----------------------------------------------|
|----3-3-3-3-3----------------------6-3----------6-6-5-5-5-6-3---6-6-8-6-5-6-3--|
|-------------------------------------------------------------------------------|
|-------------------------------------------------------------------------------|
|-------------------------------------------------------------------------------|
|-------------------------------------------------------------------------------|

X2 Chorus

|--------------------------------------------|
|-------4444-----6666-----9999-----------88--|
|-------5555-----7777-----10101010-----88----|
|--------------------------------------------|
|--------------------------------------------|
|--------------------------------------------|

Play this for the duration of the verses, omit during the begging of Kanye’s verse

|-----5~--6--p5--3-----------------3~-----5~--6--p5--3------------------------------------------|
|---------------------6--3~---6--5--------------------------6--3~---6--5-----3~-----------------|
|-----------------------------------------------------------------------------------------------|
|-----------------------------------------------------------------------------------------------|
|-----------------------------------------------------------------------------------------------|
|-----------------------------------------------------------------------------------------------|


Effects: Distortion or drive if you have it on your amp. I don’t know the difference so
you wanna tell me that’d be great.

Key:
~ vibrato
P pull off

Mr. Fate Averruncus
Musician
Tap to rate this tab
 
# A B C D E F G H I J K L M N O P Q R S T U V W X Y Z