Song name
# A B C D E F G H I J K L M N O P Q R S T U V W X Y Z

Jay-z - Roc Boys tab

                  Jay-Z "Roc Boys (and the winner is)" tab

                              By Damon Hall


         (The titles below are the lyrics that the part starts at)



The very beginning of the song where there is no words:

E|--3--0--2--3----------5h7p5------|
B|---------------------------------|
G|---------------------------------|
D|---------------------------------|
A|---------------------------------|
E|---------------------------------|


"Speech, first all I'd like to thank...":

E|--7--5--7--5----------------5--------------------|
B|--------------7--5----5--7-----7--5--7--5-----0--|
G|-------------------------------------------7-----|
D|-------------------------------------------------|
A|-------------------------------------------------|
E|-------------------------------------------------|

--------5--------------------|
--0--7-----7--5--7--5-----0--|
-----------------------7-----|
-----------------------------|
-----------------------------|
-----------------------------|

"The Nike shoe box for holdin' all this cash":

E|----------------------------------------------------|
B|----------------------------------------------------|
G|--4--4/6-------4--4/6-------4--4/6-------4--4/6-----|
D|----------4------------4------------4------------4--|
A|----------------------------------------------------|
E|----------------------------------------------------|

"Oh what a feelin', I'm feelin life":

E|---------------------------------------------------|
B|---------------------------------------------------|
G|--11--11h12--11----11--11h12--11----11--11h12--11--|
D|---------------------------------------------------|
A|---------------------------------------------------|
E|---------------------------------------------------|



Sometimes in the "Oh what a feelin'" part, it can go like this:

E|---------------------|
B|-----------------12--|
G|--11--11h12--11------|
D|---------------------|
A|---------------------|
E|---------------------|
Tap to rate this tab
 
# A B C D E F G H I J K L M N O P Q R S T U V W X Y Z