Guitaretab - guitar tabs
Song name
# A B C D E F G H I J K L M N O P Q R S T U V W X Y Z

Jay-z - Bonnie And Clyde tab

		     Bonnie and Clyde - Jay-z featuring Beyonce
-------------------------------------------------------------------------------
Tabbed by: Ace496970


Ok, look no farther, this is the best version, and the most accurate

Tuning:Standard

e|----------------------------------------------------------------------------------|
B|------6-6-5-----------------------------------------------------------------------|
G|7-------------------7--5-----4--5-------------------------------------------------|
D|--7-7-------7-----9-------7-------------------------------------------------------|
A|--------------7-7-----------------------------------------------------------------|
E|----------------------------------------------------------------------------------|
[ Tab from: http://www.guitaretab.com/j/jay-z/31336.html ]
   Small Riff #1 (1:15)
    ------------------------------------------|
e--5-7-8-10-8-7-5-|-5-7-8-10-8-7-8-7-5|-7-8---|
b---------------------------------------------|
g---------------------------------------------|
d---------------------------------------------|
a---------------------------------------------|
e---------------------------------------------|

    ----------------------
     Small Riff #2 (1:46)
    ----------------------

e-12--10-10-8-8----10-10-8-8--------------------------------------------|
b-----------------12-----------12-12-10-9-9--9h11-----------------------|
g-----------------------------------------------------------------------|
d-----------------------------------------------------------------------|
a-----------------------------------------------------------------------|
e-----------------------------------------------------------------------|
Related for Bonnie And Clyde tab
Advertisement will be closed in 10 seconds