Song name
# A B C D E F G H I J K L M N O P Q R S T U V W X Y Z

Jay-z - Moment Of Clarity tab

=====================
tabbed by Scott Davis
=====================

the main string melody tabbed for guitar


E----------------------------------------------|
B---------7-------7-9-------9-10-------10-9----|
G---6-6-9-------6---------6----------6---------|
D----------------------------------------------|
A----------------------------------------------|
E----------------------------------------------|


E-----9-----------9---------9------------------|
B--------7-------------------------------------|
G---6-----------6---9-----6---8--------9-8-----|
D------------------------------------6---------|
A----------------------------------------------|
E----------------------------------------------|
Tap to rate this tab
 
# A B C D E F G H I J K L M N O P Q R S T U V W X Y Z