Song name
# A B C D E F G H I J K L M N O P Q R S T U V W X Y Z

Jay-z - Im A Hustler Baby tab

Song: “I’m A Hustler Baby”
Artist: Jay-Z
Transcribed By: NASA (Eric)


Bass Doubles Notes on Low E String
Repeat throughout song

e-----5-5--5--5-5-5-------5-5--5--5-5-5-------5-5--5--5-5-5-----------]
B-----5-5--5--5-5-5-------5-5--5--5-5-5-------5-5--5--5-5-5-----------]
G-----5-5--5--5-5-5-------5-5--5--5-5-5-------5-5--5--5-5-5-----------]
D---------------------------------------------------------------------]
A---------------------------------------------------------------------]
E--5-------------------5-------------------5--------------------------]

e-----7-----7----------6-----6----------------------------------------]
B-----7-----7----------6-----6----------------------------------------]
G-----7-----7----------6-----6----------------------------------------]
D---------------------------------------------------------------------]
A---------------------------------------------------------------------]
E--7-----7-----7----6-----6-----6—--(3)-------------------------------]

E-mail Suggestions/Corrections to: ejacobson1231@gmail.com. Any constructive input is welcome.
Tap to rate this tab
# A B C D E F G H I J K L M N O P Q R S T U V W X Y Z