Guitaretab - guitar tabs
Song name
# A B C D E F G H I J K L M N O P Q R S T U V W X Y Z
Home / J / Jay-z / Allure tab

Jay-z - Allure tab

“Allure”
Jay-z
The Black Album

The piano only plays two chords, a GMajor7 and an Fmajor7 I have put 3 different ways to 
each of these chords, but it is only necessary to play one at a time you can decide 
one you like

       GMajor7          FMajor7
E -(10)- --7-- -7- | -(8)- -5- -5-
B --12-- --7-- -7- | --10- -5- -5-
G --11-- --7-- -7- | --9-- -5- -5-
D --12-- --9-- -5- | --10- -7- -3-
A --10-- --10- --- | --8-- -8- ---
E ------ ----- --- | ----- --- ---

This is the string section arranged for a guitar or bass, listen to the song for the rhythm
[ Tab from: http://www.guitaretab.com/j/jay-z/92077.html ]
G---------------------------------------------------|
D---------------2-----------4---2-------------------|
A-----------2-----------------------2---------------|
E--0--2--3----------0---2---------------3---2-------|

G---------------------------------------2------------|
D--4-----------4-----------4----------------2--------|
A------5---2-------5---2-------5---2-----------------|
E----------------------------------------------------|

G------------------------------------------------------|
D--2---------------------------------------------------|
A------2-------------------2-------2-------2-------2---|
E----------3---2---0---5-------0-------5-------0-------|

G------------------------|
D------------------------|
A-------2----------------|
E---5-------0---5--------|
Related for Allure tab
Advertisement will be closed in 10 seconds