Song name
# A B C D E F G H I J K L M N O P Q R S T U V W X Y Z

Jaya The Cat - Nobodys Fault tab

jaya the cat - nobody´s fault
2003 - First beer of a new day

any questions? p.heg@gmx.de



Intro guitar-A
    C  G  Am F
e|--0--3--0--1-----------| 
B|--1--3--1--1-----------| 
G|--0--0--2--2-----------| 
D|--2--0--2--3-----4x----| 
A|--3--2--0--3-----------| 
E|--0--3--0--1-----------| 


Intro guitar-B 
    C  G  Am F
e|-----------------------| 
B|-----------------------| 
G|--5~-------------------| 
D|--5~-5~-7~-3~----2x----| 
A|--3~-5~-7~-3~----------| 
E|-----3~-5~-1~----------| 



verseA guitar-A
    C  G  Am F
e|--3--3--5--1-----------| 
B|--5--3--5--1-----------| 
G|--5--4--5--2-----------| 
D|--5--5--7--3-----8x----| 
A|--3--5--7--3-----------| 
E|--3--3--5--1-----------| 


verse guitar-B 
  
e|-----------------------------------------------| 
B|-----------------------------------------------| 
G|--5-5-5-5--------------------------------------| 
D|--5-5-5-5--5-5-5-5--7-7-7-7--3-3-3-3-----4x----| 
A|--3-3-3-3--5-5-5-5--7-7-7-7--3-3-3-3-----------| 
E|-----------3-3-3-3--5-5-5-5--1-1-1-1-----------| 

then
 
e|-------------------------------------------------------------------------------| 
B|-------------------------------------------------------------------------------| 
G|--5-5-5-5-5-5-5-5--------------------------------------------------------------| 
D|--5-5-5-5-5-5-5-5--5-5-5-5-5-5-5-5--7-7-7-7-7-7-7-7--3-3-3-3-3-3-3-3-----6x----| 
A|--3-3-3-3-3-3-3-3--5-5-5-5-5-5-5-5--7-7-7-7-7-7-7-7--3-3-3-3-3-3-3-3-----------| 
E|-------------------3-3-3-3-3-3-3-3--5-5-5-5-5-5-5-5--1-1-1-1-1-1-1-1-----------| 
p.m.  . . . . . . .    . . . . . . .    . . . . . . .    . . . . . . .


verseB guitar-A
    C  G  Am F
e|--------------------------| 
B|--------------------------| 
G|-----5~~~(more then once)-| 
D|--------------------------| 
A|--------------------------| 
E|--------------------------| 


all two 2times

and so its over^^
Tap to rate this tab
# A B C D E F G H I J K L M N O P Q R S T U V W X Y Z