Song name
# A B C D E F G H I J K L M N O P Q R S T U V W X Y Z

Jaya The Cat - Night Bus tab

jaya the cat- Night Bus tab

Intro: 
e |----------------------------------------------------------------| 
B |----------------------------------------------------------------| 
G |----------------------------------------------------------------|
D |--2-02-02-45--57-5757574-2020---2-02-02-45--57-57-42------------|
A |----------------------------------------------------------------|
E |----------------------------------------------------------------|


e |----------------------------------------------------------------| 
B |----------------------------------------------------------------| 
G |----------------------------------------------------------------|
D |-2-22222-5-555-555-7-777-777--2-22222-5-555-555-7---------------|
A |-2-22222-5-555-555-7-777-777--2-22222-3-333-333-5---------------|
E |-0-00000-3-333-333-5-555-555--0-00000-3-333-333-5---------------|

Verse:
       Em       G
e |-77777777---3333---5555-------| 
B |-88888888---3333---5555----- -| 
G |-99999999---4444---6666-------|
D |-99999999---5555---7777-------|
A |-77777777---5555---7777-------|
E |-77777777---3333---5555-------|


Chorus: Just check it out ;-)
e |----------------------------------------------------------------| 
B |----------------------------------------------------------------| 
G |----------------------------------------------------------------|
D |--2-02-02-45--57-5757574-2020---2-02-02-45--57-57-42------------|
A |----------------------------------------------------------------|
E |----------------------------------------------------------------|


e |----------------------------------------------------------------| 
B |----------------------------------------------------------------| 
G |----------------------------------------------------------------|
D |-2-22222-5-555-555-7-777-777--2-22222-5-555-555-7---------------|
A |-2-22222-5-555-555-7-777-777--2-22222-3-333-333-5---------------|
E |-0-00000-3-333-333-5-555-555--0-00000-3-333-333-5---------------|

                     

                                                       Tabs made by Ratte13
Tap to rate this tab
 
# A B C D E F G H I J K L M N O P Q R S T U V W X Y Z