Jaymay - You Are The Only One I Love tab

It's a consistent pattern of two different tabs, plucked the whole time:

e-----------------------------------------------|
B-----------------------------------------------|
G-----------------------------------------------|
D----------3---------3----------3---------3-----|...
A--------3---3----3----3-----3-----3----3---3---|...
E-----1---------1---------1----------1----------|...


e-----------------------------------------------|
B-----------------------------------------------|
G-----------------------------------------------|
D----------2---------2-----------2---------2----|
A--------3---3----3----3------3----3----3----3--|
E-----3---------3----------3----------3---------|

and it begins:
the   first time...
e------------------------------------------------|
B------------------------------------------------|
G------------------------------------------------|
D----------3---------3----------3---------3------|
A--------3---3----3----3-----3-----3----3---3----|
E-----1---------1---------1----------1-----------|

  better....
e-------------------------------------------------|
B-------------------------------------------------|
G-------------------------------------------------|
D----------2---------2-----------2---------2------|
A--------3---3----3----3------3----3----3----3----|
E-----3---------3----------3----------3-----------|

don't stop plucking this continuously throughout the song and don't change the pattern, 
you've got it.

**pluck slowly during:
    J-aime, I love you, Jaime, I love you, Jaime, Jaime, I
e-------------------------------------------------------|
B-------------------------------------------------------|
G-------------------------------------------------------|
D----------------------------------3--------------------|
A--------------------3-----------------------------3----|
E-----1-------------------------------------------------|

     love you...
e-------------------------------------------------------|
B-------------------------------------------------------|
G-------------------------------------------------------|
D----------2---------2-----------2---------2------------|
A--------3---3----3----3------3----3----3----3----------|
E-----3---------3----------3----------3-----------------|


The song isn't hard and hopefully this was easy to follow.

Credit goes to Cameron Beveridge on Yahoo! Canada Answers for making this tab...I just 
it out and put it on this website.
Tap to rate this tab
 
# A B C D E F G H I J K L M N O P Q R S T U V W X Y Z