Song name
# A B C D E F G H I J K L M N O P Q R S T U V W X Y Z

Jayme Dee - Sunday Morning tab

First three are bar chords. First time making a tab. I loved her version of this song 
and couldn't find any tabs so I thought I would make some :) Enjoy

Standard Tuning
No Capo


e|-------------------------------------------------|
B|-----6--------5--------5--------5----------------|
G|-----7--------4--------4-------4-----------------|
D|----7-------3---------5-------5------------------|
A|---5---------5-------3-------4-------------------|
E|-----------3-------------------------------------|

e|-------------------------------------------------|
B|-----6--------5--------5-------------------------|
G|-----7--------4--------4-------------------------|
D|----7-------3---------5--------------------------|
A|---5---------5-------3---------------------------|
E|-----------3-------------------------------------|
Tap to rate this tab
# A B C D E F G H I J K L M N O P Q R S T U V W X Y Z