Song name
# A B C D E F G H I J K L M N O P Q R S T U V W X Y Z

Jb Lenoir - The Voodoo tab

Artist: J.B. Lenoir (http://en.wikipedia.org/wiki/J._B._Lenoir)
Song: The Voodoo
Tabber: Andrew Biles


Standard tuning - Capo 2

Intro
|------------------|
|------------------|
|------------------|
|-------------2----|
|-----0-2-4-5---5--|
|-0-3--------------|

Verse (ends on E)
|-----------------|
|-----------------|
|-----2-2-----2-2-|
|-2-2-2-2-2-2-2-2-|
|-2-2-0-0-2-2-0-0-|
|-0-0-----0-0-----|

Chorus
|--------------------------------------------------------------|
|--------------------------------------------------------------|
|---------0-2------------0-2-----------------------------------|
|-----0-2-----5------0-2-----5--------------2----------------0-|
|-0-3------------0-3----------------0-2-4-5---5------0-2-4-5---|
|-------------------------------0-3--------------0-3-----------|

------------------------------------------------------------------|
------------------------------------------------------------------|
------------------------------------------------------------------|
-4-4-6-6-4-4-6-6-2-2-4-4-2-2-4-4---------------2----------------2-|
-0-0-0-0-0-0-0-0-0-0-0-0-0-0-0-0-2-----0-2-4-5---5------0-2-4-5---|
---------------------------------0-0-3--------------0-3-----------|

Break
|----------------/9--/9--9-7----7--|
|-/9-/9-9-7---7--/10-/10-----10----|
|-/9-/9-----9----------------------|
|----------------------------------|
|----------------------------------|
|----------------------------------|
Tap to rate this tab
# A B C D E F G H I J K L M N O P Q R S T U V W X Y Z