Song name
# A B C D E F G H I J K L M N O P Q R S T U V W X Y Z

Jbo - Bejonze chords

Highlighted       Show chord diagrams
Eb  A#  C  G#
Eb  A#  C  G#

E|-------------------------------|
B|-------------------------------|
G|------8-7-8-7-8-12-12-11-12-15-|
D|-10-8--------------------------|
A|-------------------------------|
E|-------------------------------|

E|-------------------------------------|
B|-------------------------------------|
G|------8-7-8-7-8-12-12-11-12-15-17-15-|
D|-10-8--------------------------------|
A|-------------------------------------|
E|-------------------------------------|


Eb         A#        C        G#
Findest du mich eigentlich hübsch?
Eb  A#  G#  G#
Hmmmm…
Eb               A#             C          G#
Find’st du nicht meinen Po nen Tick zu dick?
Eb  A#  G#  G#
Hmmmmmm…


Jetzt hör mal zu:
                         E
Du siehst nicht aus wie Bejonze
G#                      E                     G#
Nein, du bist hässlich, aber es steht dir gut
               E
Es passt zu dir
G#                           Eb
Wenn man dich schön saufen will,
Kommt man mit Bier nicht weit
                      E
Ich mein es tut mir leid
             G#
Es tut mir leid
              E
Es tut mir leid
G#                         E
Du siehst nicht aus wie Bejonze
G#                             
Nein, du siehst aus, wie ne…


Eb  A#  C  G#
Eb  A#  C  G#

E|-------------------------------|
B|-------------------------------|
G|------8-7-8-7-8-12-12-11-12-15-|
D|-10-8--------------------------|
A|-------------------------------|
E|-------------------------------|

E|-------------------------------------|
B|-------------------------------------|
G|------8-7-8-7-8-12-12-11-12-15-17-15-|
D|-10-8--------------------------------|
A|-------------------------------------|
E|-------------------------------------|


Eb              A#           C          G#
Find’st du die eigentlich hübscher als mich?
Eb  A#  G# G#
Hmmmm....
Eb              A#                C                G#
Wenn ich so viel Wert auf hübsches Äußeres legen würde
Eb            A#                      G#  G#
Dann wär ich doch gar nicht mit dir zusammen


                          E
Du siehst nicht aus wie Bejonze
G#                      E                    G#
Nein, du bist hässlich, aber es steht dir gut
              E
Es passt zu dir
G#                            Eb
Wenn man dich schön saufen will,
Kommt man mit Bier nicht weit
                       E
Ich mein es tut mir leid
              G#
Es tut mir leid
              E
Es tut mir leid
G#                           E
Du siehst nicht aus wie Bejonze
G#                          
Nein, du siehst aus, wie ne…



Eb B A# A#

E|-----------------------------------|
B|-----------------------------------|
G|-----------------------------------|
D|-------------------------------8---|
A|-6-6-6-8-6-----------------8-8---8-|
E|------------7-7-7-9-7--6-6---------|

Eb             B          A# A#
Ich mein, ich hab doch auch
Eb       B           A# A#
Nen respektablen Bauch
Eb        B           A# A#
Doch da scheiß ich drauf
Eb     B          A#
Tu du das doch auch!



                           E 
Du siehst nicht aus wie Bejonze
G#                      E                   G#
Nein, du bist hässlich, aber es steht dir gut
                          E
Du siehst nicht aus wie Bejonze
G#                         Eb
Nein, du siehst aus wie ne Frau, die zu mir passt
              E
Jedenfalls fast
G#                          E
Du siehst nicht aus wie Bejonze
G#                              E
Ich seh nicht aus wie George Clooney
G#              Eb
Scheiß doch drauf!


E                  G# E            G#
Isn’t she beautiful? Yes she isn’t!
E                 G#         
Isn’t she beautiful? 
          Eb                    
Yes she isn’t! Kein Bissen, kannst vergissen!

E                  G# E            G#
Isn’t she beautiful? Yes she isn’t!
E                 G#         
Isn’t she beautiful? 
          Eb                    
Yes she isn’t! Kein Bissen, kannst vergissen!


Tap to rate this tab
# A B C D E F G H I J K L M N O P Q R S T U V W X Y Z