Guitaretab - guitar tabs
Song name
# A B C D E F G H I J K L M N O P Q R S T U V W X Y Z

Jbo - Ein Guter Tag Zum Sterben tab

SOLO  Ein guter Tag zum Sterben

Wie lange ihr die einzelnen Toene ausklingen lassen muesst, muesst ihr selbst raushoeren. 


e|-15b------------------------------------------------------------------|
h|-----10^15---13--12-13-15-12--10^3---3--3^0-0^1-1-1-0--10^13-12^10-10-|
g|------------------------------------------------------2---------------|
d|----------------------------------------------------------------------|
a|----------------------------------------------------------------------|
e|----------------------------------------------------------------------|

[ Tab from: http://www.guitaretab.com/j/jbo/40129.html ]
e|---10--8-7--------------------10----10-------------15---15-14-14^12-10-|
h|-8--------10-8-10b---10^8-12----12-----12--10--8-----------------------|
g|----------------------------------------------9--7---------------------|
d|-----------------------------------------------------------------------|
a|-----------------------------------------------------------------------|
e|-----------------------------------------------------------------------|


e|-12^10-8--7--5--7-5---10-8-7------------------------10^15---15--15-|
h|--------------------8---------0^1--1-------------------------------|
g|---------------------------------------2^4--2---0^2----------------|
d|-------------------------------------------------------------------|
a|-------------------------------------------------------------------|
e|-------------------------------------------------------------------|


e|---------------------3-|
h|---------------------3-|
g|---------------------0-|
d|---------------------0-|
a|---------------------2-|
e|-12--8-7^8-7--5--3---3-|
Related for Ein Guter Tag Zum Sterben tab