Song name
# A B C D E F G H I J K L M N O P Q R S T U V W X Y Z

Jd Natasha - Lagrimas tab

{COMPLETE GUITAR TAB WITH LYRICS AND CHORDS}

Artist   : JD Natasha
Title    : Lágrimas
Album    : Imperfect-Imperfecta

Tabbed by: dustin7up
E-mail   : dustin7up@gmail.com
Tuning   : Normal {E,A,D,G,B,e}


May 15, 2007



CHORDS:
Gm = 355333	Cm = 335543	F = x87565
Bb = 688766	Eb = 365343	
Dm = 557765	D  = 557755



Intro: (00:00 - 00:07)

     Gm	 Bb   Dm     Gm	  Bb   Dm
e|---------------------------------|
B|---------------------------------|
G|---------------------------------|
D|---5-5-8--8/7------5--5-8--8/7---| {x2}
A|---5-5-8--8/7------5--5-8--8/7---|
E|---3-3-6--6/5------3--3-6--6/5---|
  pm....	  pm.....



Verse 1: (00:08 - 00:22)

     Gm	 Bb   Dm     Gm   Bb   Dm     Gm  Bb   Dm     Gm   Bb   Dm
e|------------------------------------------------------------------|
B|------------------------------------------------------------------|
G|------------------------------------------------------------------|
D|---5-5-8--8/7------5--5-8--8/7------5-5-8--8/7------5--5-8--8/7---|
A|---5-5-8--8/7------5--5-8--8/7------5-5-8--8/7------5--5-8--8/7---|
E|---3-3-6--6/5------3--3-6--6/5------3-3-6--6/5------3--3-6--6/5---|
  pm....	  pm..... 	   pm....	   pm.....
     Triste me,		   Dejaste triste.		     Como esta cancion.


     Cm	 Eb   D      Cm   Eb   D      Bb F
e|--------------------------------------------|
B|--------------------------------------------|
G|---5-5-8--8/7------5--5-8--8/7---------10---|
D|---5-5-8--8/7------5--5-8--8/7------8--10---|
A|---3-3-6--6/5------3--3-6--6/5------8--8----|
E|------------------------------------6-------|
  pm....	  pm.....
			   Lagrimas de amor.




Verse 2: (00:23 - 00:37)

     Gm	 Bb   Dm     Gm   Bb   Dm     Gm  Bb   Dm     Gm   Bb   Dm
e|------------------------------------------------------------------|
B|------------------------------------------------------------------|
G|------------------------------------------------------------------|
D|---5-5-8--8/7------5--5-8--8/7------5-5-8--8/7------5--5-8--8/7---|
A|---5-5-8--8/7------5--5-8--8/7------5-5-8--8/7------5--5-8--8/7---|
E|---3-3-6--6/5------3--3-6--6/5------3-3-6--6/5------3--3-6--6/5---|
  pm....	  pm..... 	   pm....	   pm.....
     Fuiste,		    Quizas nunca tu viste.	     Este corazon.


     Cm	 Eb   D      Cm   Eb   D      Bb F
e|--------------------------------------------|
B|--------------------------------------------|
G|---5-5-8--8/7------5--5-8--8/7---------10---|
D|---5-5-8--8/7------5--5-8--8/7------8--10---|
A|---3-3-6--6/5------3--3-6--6/5------8--8----|
E|------------------------------------6-------|
  pm....	  pm.....
			   Lagrimas de amor.



Chorus: (00:38 - 01:04)

     Bb        Dm	      Eb	   Bb	     Dm		    Eb
e|---------------------------------------------------------------------------|
B|---------------------------------------------------------------------------|
G|---------------------------------------------------------------------------|
D|---8---------12-------------13-----------8---------12-------------13-------|
A|---8---------12-------------13-----------8---------12-------------13-------|
E|---6---------10-------------11-----------6---------10-------------11-------|
  Y te vas. Y te vas. No me queda nada. Y te vas. Y te vas. No me queda nada. Porque no estas.



Intro: (01:05 - 01:12)

     Cm	 Eb   D      Cm   Eb   D
e|---------------------------------|
B|---------------------------------|
G|---5-5-8--8/7------5--5-8--8/7---|
D|---5-5-8--8/7------5--5-8--8/7---| {x2}
A|---3-3-6--6/5------3--3-6--6/5---|
E|---------------------------------|
  pm....	  pm.....



Bridge: (01:13 - 01:27)

     Gm					  Cm			     Bb   F
e|-----------------------------------------------------------------------------|
B|-----------------------------------------------------------------------------|
G|------------------------------------------------------------------------10---|
D|---5------------------------------------10-------------------------8----10---|
A|---5------------------------------------10-------------------------8----8----|
E|---3------------------------------------8--------------------------6---------|
  Dime, tell me that you need me. Antes de que muera el sol. Lagrimas de amor.



Verse 3: (01:28 - 01:42)

     Gm	 Bb   Dm     Gm   Bb   Dm     Gm  Bb   Dm     Gm   Bb   Dm
e|------------------------------------------------------------------|
B|------------------------------------------------------------------|
G|------------------------------------------------------------------|
D|---5-5-8--8/7------5--5-8--8/7------5-5-8--8/7------5--5-8--8/7---|
A|---5-5-8--8/7------5--5-8--8/7------5-5-8--8/7------5--5-8--8/7---|
E|---3-3-6--6/5------3--3-6--6/5------3-3-6--6/5------3--3-6--6/5---|
  pm....	  pm..... 	   pm....	   pm.....
     Viven,		    Los besos que me diste.	    Ya no creo en,


     Cm	 Eb   D      Cm   Eb   D      Bb F
e|--------------------------------------------|
B|--------------------------------------------|
G|---5-5-8--8/7------5--5-8--8/7---------10---|
D|---5-5-8--8/7------5--5-8--8/7------8--10---|
A|---3-3-6--6/5------3--3-6--6/5------8--8----|
E|------------------------------------6-------|
  pm....	  pm.....
    Nada mas.		   Lagrimas de amor.



Chorus: (01:43 - 02:09)

     Bb        Dm	      Eb	   Bb	     Dm		    Eb
e|---------------------------------------------------------------------------|
B|---------------------------------------------------------------------------|
G|---------------------------------------------------------------------------|
D|---8---------12-------------13-----------8---------12-------------13-------|
A|---8---------12-------------13-----------8---------12-------------13-------|
E|---6---------10-------------11-----------6---------10-------------11-------|
  Y te vas. Y te vas. No me queda nada. Y te vas. Y te vas. No me queda nada. Porque no estas.



Chorus: (02:32 - 03:00)

     Bb        Dm	      Eb	   Bb	     Dm		    Eb
e|---------------------------------------------------------------------------|
B|---------------------------------------------------------------------------|
G|---------------------------------------------------------------------------|
D|---8---------12-------------13-----------8---------12-------------13-------|
A|---8---------12-------------13-----------8---------12-------------13-------|
E|---6---------10-------------11-----------6---------10-------------11-------|
  Y te vas. Y te vas. No me queda nada. Y te vas. Y te vas. No me queda nada. Porque no estas.


Tap to rate this tab
# A B C D E F G H I J K L M N O P Q R S T U V W X Y Z