Song name
# A B C D E F G H I J K L M N O P Q R S T U V W X Y Z

Jean-baptiste Lully - Au Clair De La Lune tab

Jean-Baptistie Lully - http://www.naxos.com/composerinfo/640.htm



-----------------------------------------------------------------------
	        Au Clair De La Lune - Jean-Baptiste Lully
-----------------------------------------------------------------------
Tabbed by: Travis Wong
Email: travis_wong@hotmail.com

4/4 Time, Key of C

Tuning: EADGBe (Standard)

Gtr. 1
e|--------------|--0----------|-----0--------|------------------------|
B|--1--1--1--3--|----------3--|--1-----3--3--|--1---------------------|
G|--------------|-------------|--------------|------------------------|
D|--------------|-------------|--------------|------------------------|
A|--------------|-------------|--------------|------------------------|
E|--------------|-------------|--------------|------------------------|
Gtr. 2
e|--------------|-------------|--------------|------------------------|
B|--------------|-------------|--------------|------------------------|
G|--------0-----|-------------|-----0--0-----|------------------------|
D|-----2--------|-------------|--2--------3--|--2---------------------|
A|--3-----------|--3-------2--|--3-----------|--3---------------------|
E|-----------3--|-------------|--------3-----|----------3-------------|

Gtr. 1
e|--------------|--0----------|-----0--------|------------------------|
B|--1--1--1--3--|----------3--|--1-----3--3--|--1---------------------|
G|--------------|-------------|--------------|------------------------|
D|--------------|-------------|--------------|------------------------|
A|--------------|-------------|--------------|------------------------|
E|--------------|-------------|--------------|------------------------|
Gtr. 2
e|--------------|-------------|--------------|------------------------|
B|--------------|-------------|--------------|------------------------|
G|--------0-----|-------------|-----0--0-----|------------------------|
D|-----2--------|-------------|--2--------3--|--2---------------------|
A|--3-----------|--3-------2--|--3-----------|--3---------------------|
E|-----------3--|-------------|--------3-----|----------3-------------|

Gtr. 1
e|--------------|-------------|--------------|------------------------|
B|--3--3--3--3--|-------------|--3--1--0-----|------------------------|
G|--------------|--2-------2--|-----------2--|--0---------------------|
D|--------------|-------------|--------------|------------------------|
A|--------------|-------------|--------------|------------------------|
E|--------------|-------------|--------------|------------------------|
Gtr. 2
e|--------------|-------------|--------------|------------------------|
B|--------------|-------------|--------3--1--|------------------------|
G|-----2-----2--|-------------|--------------|--0---------------------|
D|--3-----2-----|--3----------|--0--4--------|-----3--2--0------------|
A|--------------|----------4--|--------------|------------------------|
E|--------------|-------------|--------------|--3---------------------|

Gtr. 1
e|--------------|--0----------|-----0--------|------------------------|
B|--1--1--1--3--|----------3--|--1-----3--3--|--1---------------------|
G|--------------|-------------|--------------|------------------------|
D|--------------|-------------|--------------|------------------------|
A|--------------|-------------|--------------|------------------------|
E|--------------|-------------|--------------|------------------------|
Gtr. 2
e|--------------|-------------|--------------|------------------------|
B|--------------|-------------|--------------|------------------------|
G|--------0-----|-------------|-----0--0-----|------------------------|
D|-----2--------|-------------|--2--------3--|--2---------------------|
A|--3-----------|--3-------2--|--3-----------|--3---------------------|
E|-----------3--|-------------|--------3-----|----------3-------------|
Tap to rate this tab
# A B C D E F G H I J K L M N O P Q R S T U V W X Y Z