Song name
# A B C D E F G H I J K L M N O P Q R S T U V W X Y Z

Jean-jacques Goldman - Elle Attend chords

Highlighted       Show chord diagrams
Paroles et musique de Jean-Jacques Goldman

Capo II

Intro :
    C     D     Em               C     D     Em 
 |------0-----0-----0-2-3-2-0--------0-----0-----0-2-0---0-------------------|
 |----1-----------0-----------3----1-----------0-------0---0-----------------|
 |--0-------2--------------------0-------2-----------------------------------|
 |--------0-----2----------------------0-----2-------------------------------|
 |---------------------------------------------------------------------------|
 |---------------------------------------------------------------------------|


 Couplet :
          C            D             Em 
 |------------0------------0-------------0-2-0---0----|
 |----------1---1------------3---------0-------0------|
 |--------0--------------2-------------------------2--| (2 fois)
 |---------------------0-------------2----------------|
 |----------------------------------------------------|
 |----------------------------------------------------|
 Elle attend que le monde      change
 Elle attend que  changent les temps


          C            D             Em 
 |------------0------------0-------------0-2-0-----3-----2--|
 |----------1---1------------3---------0-------0------------|
 |--------0--------------2----------------------------------|
 |---------------------0-------------2----------------------|
 |----------------------------------------------------------|
 |----------------------------------------------------------|
 Elle attend que ce monde     étrange              se perde et


   C       D             C9                          D        Em 
 |-----0-------0---------------0----------------0----------0------0-2-0---0---|
 |---1---1-------3-----------3----3---3-------3----------3------0-------0-----|
 |-0---------2-------------0--------0---0---0----------2--------------------2-|
 |---------0-----------------------------------------0--------2---------------|
 |-----------------------3----------------3-----------------------------------|
 |----------------------------------------------------------------------------|
  Que   tournent les vents,          inexorablement  elle    attend

 Puis rejouer l'intro...



        C           D      Em 
 Elle attend que le monde change
        C         D           Em 
 Elle attend que changent les temps
        C       D           Em 
 Elle attend que ce monde étrange
    C            D            C 
 Se perde et que tournent les vents
      C          D      Em 
 Inexorablement, elle attend.


        C            D     Em 
 Elle attend que l'horizon bouge
        C        D            Em 
 Elle attend que changent les gens
        C          D          Em 
 Elle attend comme un coup de foudre
          C     D       C 
 Le règne des anges innocents
      C          D      Em 
 Inexorablement, elle attend.


        C           D           Em 
 Elle attend que la grande roue tourne
          C     D          Em 
 Tournent les aiguilles du temps
        C    D         Em 
 Elle attend sans se résoudre
             C            D    C 
 En frottant ses couverts en argent
      C          D      Em 
 Inexorablement, elle attend.


    G            C    G    C   D 
 Et elle regarde des images
    G          C         G     D/F# 
 Et lit des histoires d'avant
      Em         Am         Em 
 D'honneur et de grands équipages
    C                         Bm   D 
 Oú les bons sont habillés de blanc


    G              C     G     C   D 
 Et elle s'invente des voyages
       G              C    G    D/F# 
 Entre un fauteuil et un divan
          Em         Am      Em 
 D'eau de rose et de passion sage
       C                    Bm 
 Aussi purs que ces vieux romans
    C                             D 
 Aussi grands que celui qu'elle attend.


        C           D      Em 
 Elle attend que le monde change
        C         D           Em 
 Elle attend que changent les gens
        C       D           Em 
 Elle attend que ce monde étrange
    C            D            C 
 Se perde et que tournent les vents
      C          D      Em 
 Inexorablement, elle attend.
Tap to rate this tab
# A B C D E F G H I J K L M N O P Q R S T U V W X Y Z