Song name
# A B C D E F G H I J K L M N O P Q R S T U V W X Y Z

Jean Louis Aubert - Je Tattends tab

Salut à tous !!
Pour ma 2eme tab, une chanson de jean-louis aubert.
J'ai essayé de me rapprocher le plus de la version originale,
mais il se peut qu'il y ait des erreurs,
j'pense notamment au pont ou j'suis pas certains des accords.
N'hésitez pas à corriger, améliorer etc.. ^^
J'ai également fait une vidéo pour vous apprendre
cette chanson sur youtube ( pseudo Ipsaous ).
Http://fasilaguitare.free.fr

Intro :

e-------------------------------------------------------|
B-------------------------------------------------------|
G---------2-----2-----------0----------0----------------|
D-------2---2--------2----2---2-----2-----2-------------|            x3
A-----0-------0---------3--------2----------------------|
E-------------------------------------------------------|


	D
e------2------2p0-------|
B-----3-------3----3----|
G----2--------2-------2-|
D---0--------(0)--------|
A-----------------------|
E-----------------------|


1er Couplet :


e-------------------------------------------|
B---------------------------1---------0-----|
G---------2-----2-----------0---------0-----|
D-------2---2--------2----2---2----------2--|			x3
A-----0-------0---------3---------2---------|
E-------------------------------------------|

	D
e--------2------------2------|(2)
B--------3------------3------|(3)
G-----2-------2-------2------|(2)
D---0------------0-----------|
A----------------------------|
E----------------------------|


2eme couplet

e-------------------------------------------|
B---------------------------1---------0-----|
G---------2-----2-----------0---------0-----|
D-------2---2--------2----2---2----------2--|			x3
A-----0-------0---------3---------2---------|
E-------------------------------------------|


	D
e------2------2p0-------|
B-----3-------3----3----|
G----2--------2-------2-|
D---0--------(0)--------|
A-----------------------|
E-----------------------|

Refrain ( 2 fois ):

C/Em/Am/D, on peut aussi varier avec un dsus4

Puis on recommence avec l'intro sur "Viens", les couplets
et on refait le refrain 2 fois.

Pont :

Juste frotter les cordes vers le bas sur ses accords :

F 003210
C 032010
D 000232
Am 002210

Puis de nouveau F - C - D

Ensuite on rejoue l'intro, on enchaine sur 1 couplet,
et pour finir sur les "A demain" on rejoue l'intro
jusqu'a la fin de la chanson ;).

@++ :).
Tap to rate this tab
# A B C D E F G H I J K L M N O P Q R S T U V W X Y Z