Song name
# A B C D E F G H I J K L M N O P Q R S T U V W X Y Z

Jean Louis Aubert - Alter Ego tab

Alter Ego - Jean Louis Aubert

E||-------3---2-------3-----|-------2-----------2-----|
B||-------3---3-------3-----|-------3---3-------3-----|
G||-----0-----------0-----0-|-----0-----0-----0-------|
D||---2-----------x---------|---0-----------0---------|
A||-3-------3---3-------3---|-2-------2---2-------0-2-|
E||-------------------------|-------------------------|
         il manque un   temps            ma    vie    


E||-------3---2-------3-----|-------2-----------2-----|
B||-------3---3-------3-----|-------3---3-------3-----|
G||-----0-----------0-----0-|-----0-----0-----0-------|
D||---2-----------x---------|---0-----------0---------|
A||-3-------3---3-------3---|-2-------2---2-------0-2-|
E||-------------------------|-------------------------|
	  il manque un  temps,     j'ai compris

E||-------3---2-------3-----|-------2-----------2-----|
B||-------3---3-------3-----|-------3---3-------3-----|
G||-----0-----------0-----0-|-----0-----0-----0-----0-|
D||---2-----------x---------|---0-----------0-----0---|
A||-3-------3---3-------3---|-2-------2---2-----------|
E||-------------------------|-------------------------|
	  il me   manque toi,			    mon

E||-------2-----------3-----|-------2----------------|
B||-----3---3-------3---3---|-----3--3---------------|
G||---2-------2---2-------2-|---2------2-------0-2-4-|
D||-0-----------0-----------|-0----------0-2-4-------|
A||-------------------------|------------------------|
E||-------------------------|------------------------|
 alter ego


tu es partie mon amie
tu m'as laiss seul ici
partout tu me suis
mon alter ego

   
E||-------------------------|-------------------------|
B||-------0-----------1-----|-------1-----------1-----|
G||-----0-----0-----0-----0-|-----0-----0-----0-----0-|
D||---2-----2-----2-----2---|---4-----4-----4-----4---|
A||-------------3-----------|-5-----------5-----------|
E||-0-----------------------|-------------------------|
o tu es,		 j'irai te chercher

E||-------------------------|-------------------------|
B||-------0-----------1-----|-------1-----------1-----|
G||-----0-----0-----0-----0-|-----0-----0-----0-----0-|
D||---2-----2-----2-----2---|---4-----4-----4-----4---|
A||-------------3-----------|-5-----------5-----------|
E||-0-----------------------|-------------------------|
o tu vis 		je saurai te trouver

E||-------------------------|-------------------------|
B||-------0-----------1-----|-------1-----------1-----|
G||-----0-----0-----0-----0-|-----0-----0-----0-----0-|
D||---2-----2-----2-----2---|---4-----4-----4-----4---|
A||-------------3-----------|-5-----------5-----------|
E||-0-----------------------|-------------------------|
o tu te caches, laisse moi deviner              que rien 

E||--------------------------|
B||-------1------------1-----|
G||-----0-----0------0-----0-|
D||---2-----2------2-----2---|
A||-0------------0-----------|
E||--------------------------|
ne change, 		t'es toujours

E||-------2-----------3-----|-------2----------------|
B||-----3---3-------3---3---|-----3--3---------------|
G||---2-------2---2-------2-|---2------2-------0-2-4-|
D||-0-----------0-----------|-0----------0-2-4-------|
A||-------------------------|------------------------|
E||-------------------------|------------------------|
l mon ange


il manque ton rire  l'ennui
il manque ta flamme  ma vie
c'est pas du jeux,
mon alter ego


o tu es , j'irai te chercher

o tu vis je saurai te trouver
  
o tu te caches , laisse moi deviner

t'es surement baie des anges, surement l-bas mon ange
surement l-bas, surement l-bas

o tu es , j'irai te chercher
o tu vis je saurai te trouver 
o que tu sois, je voudrais que tu saches
Tant que rien ne change, t'es toujours l mon ange 

il manque un temps  ma vie
il manque un rire, je m'ennuie
il me manque toi ,
mon amie
Tap to rate this tab
 
# A B C D E F G H I J K L M N O P Q R S T U V W X Y Z