Jean-michel Jarre - Oxygene 4 tab

-------------------------
Song: Oxygene 4
Artist: Jean Michel Jarre
Album Oxygene
Year: 1976
http://www.jeanmicheljarre.com/
-------------------------
Tabbed by: MikeY
Synth tabbed for Guitar
Contact me through this site

Tuning: Standard

Notes: This starts easy but the solo is deceptively hard, try playing along with the 
if you can keep up, youre a true guitar hero (Personal opinion).
As with all my tabs, Ive tried to show timing but it may not (ha ha) be the best.
This isnt 100%. Its as close as I can get which, at the time of writing (July 2010) is a 
of a lot closer than any other tab Ive come across.

e|----------------------------------|
B|----------------------------------|
G|5----------------5----------------|
D|-----5---5------------5---5-------|
A|-------6----------------6---------|
E|------------8----------------8----|

e|----------------------------------|
B|----------------------------------|
G|3----2---2-------2--------2-------|
D|-------5-----------5-3------5-3---|
A|------------5----------3--------3-|
E|----------------------------------|

e|----------------------------------|
B|----------------------------------|
G|5----------------5----------------|
D|-----5---5------------5---5-------|
A|-------6----------------6---------|
E|------------8----------------8----|

e|----------------------------------|
B|----------------------------------|
G|3----2---2-------2--------2-------|
D|-------5-----------5-3------5-3---|
A|------------5----------3--------3-|
E|----------------------------------|

Synth bit Haven't worked out yet

Solo

e|11-10-11-8-------11-10-11-8-------|
B|------------8----------------8----|
G|----------------------------------|
D|----------------------------------|
A|----------------------------------|
E|----------------------------------|

e|6-5-6-3-------6-5-6-3-------------|
B|---------3-------------3----------|
G|----------------------------------|
D|----------------------------------|
A|----------------------------------|
E|----------------------------------|

e|5-3-5-1--8----5--3--1--8----------|
B|----------------------------------|
G|----------------------------------|
D|----------------------------------|
A|----------------------------------|
E|----------------------------------|

e|11-10-11-8-----11--10---8---------|
B|-----------8--8---8----8----------|
G|----------------------------------|
D|----------------------------------|
A|----------------------------------|
E|----------------------------------|

e|10-8----10-8----10----------------|
B|-----11------11----8--------------|
G|----------------------------------|
D|----------------------------------|
A|----------------------------------|
E|----------------------------------|

e|--10-8-10------10-8---------------|
B|8---------11-8------11------------|
G|----------------------------------|
D|----------------------------------|
A|----------------------------------|
E|----------------------------------|

e|--------8-----------------8-------|
B|10-8---------10-8-10-8------------|
G|-----10---10-----------10---------|
D|----------------------------------|
A|----------------------------------|
E|----------------------------------|
Tap to rate this tab
 
# A B C D E F G H I J K L M N O P Q R S T U V W X Y Z