Song name
# A B C D E F G H I J K L M N O P Q R S T U V W X Y Z

Jean-michel Jarre - Equinoxe 1 tab

-------------------------
Song: Equinoxe 1
Artist: Jean Michel Jarre
Album Equinoxe
Year: 1978
http://www.jeanmicheljarre.com/
-------------------------

Tabbed by: MikeY
Contact me through this site
Tuning: Standard

Notes: Synth tabbed for guitar.  Ive tried to show timing but it may not be the best.
This isnt 100%. Its as close as I can get which, at the time of writing (July 2010) is a 
of a lot closer than any other tab Ive come across.

e|8-8----8-8--------8-8---------|
B|-----------8-8--------8-8-----|
G|--------------------------5-5-|
D|------------------------------|
A|------------------------------|
E|------------------------------|

e|88------|
B|--88----|
G|----55--|
D|--------|
A|--------|
E|--------|

:

e|88----88----88----88----|
B|--88----88----88----88--|
G|----55----55----55----55|
D|------------------------|
A|------------------------|
E|------------------------|

e|88----88----88----88----|
B|--66----66----66----66--|
G|----55----55----55----55|
D|------------------------|
A|------------------------|
E|------------------------|

e|66----66----66----66----|
B|--66----66----66----66--|
G|----55----55----55----55|
D|------------------------|
A|------------------------|
E|------------------------|

e|55----55----55----55----|
B|--66----66----66----66--|
G|----55----55----55----55|
D|------------------------|
A|------------------------|
E|------------------------|
Tap to rate this tab
 
# A B C D E F G H I J K L M N O P Q R S T U V W X Y Z