Song name
# A B C D E F G H I J K L M N O P Q R S T U V W X Y Z

Jean Sibelius - Porilaisten Marssi tab

Toisen osion loppu voi olla hieman epätarkka.


E|-----------------------------------------------------------------|
B|-----------------------------------------------------------------|
G|-------7----7-8-10---10-10--8-8-8--8-7-7-7--7-5-5-5-5----5-------|
D|--8-10---10--------------------------------------------------5-7-|
A|-----------------------------------------------------------7-----|
E|-----------------------------------------------------------------|


E|-----------------------------------------------------------------|
B|-----------------------------------------------------------------|
G|-------7----7-8-10---10-10--8-8-8--8-----------------------------|
D|--8-10---10--------------------------3-3-3-5-5-5-----------------|
A|-----------------------------------------------------------------|
E|-----------------------------------------------------------------|

Molemmat kahesti.   Play 2 times.
Tap to rate this tab
# A B C D E F G H I J K L M N O P Q R S T U V W X Y Z