Song name
# A B C D E F G H I J K L M N O P Q R S T U V W X Y Z

Jean Sibelius - Finlandia tab

----------------------------------------------------------------------------
			     Finlandia - Jean Sibelius
----------------------------------------------------------------------------
Tabbed by: wyl170594
Email: wyl170594@hotmail.com
Tuning: Standard 
(4/4) So if there are not 4 times in a part, means that there is a silence.

     mf
-----------|---------|-----------|---------|---------|---------|-----------|
---0---0---|---1-0---|----0------|-----0---|--0---0--|---1-0---|----0------|
-----2-----|---------|--2---0-2--|---2-----|----2----|---------|--2---0-2--|
-----------|---------|-----------|---------|---------|---------|-----------|
-----------|---------|-----------|---------|---------|---------|-----------|
-----------|---------|-----------|---------|---------|---------|-----------|

              < < <       < f
-----------|---------|----0------|-----------|---------|---------|
-----0-----|--3-3-3--|------0----|--0-3-3----|-----1---|--1-0----|
-----------|---------|-----------|--------2--|---2-----|------2--|
-----------|---------|-----------|-----------|---------|---------|
-----------|---------|-----------|-----------|---------|---------|
-----------|---------|-----------|-----------|---------|---------|

      >       > > >         mp      < < <       < f
-----------|-----------|---------|-----------|--0------|-----------|-------|
----0------|--------0--|----0----|--3-3-3----|----0----|--0-3-3----|----1--|
------0----|--0-2-2----|---------|-----------|---------|--------2--|--2----|
-----------|-----------|---------|-----------|---------|-----------|-------|
-----------|-----------|---------|-----------|---------|-----------|-------|
-----------|-----------|---------|-----------|---------|-----------|-------|

    mf                p                    mp
----------|--------|-----------|---------|---------|--0--------|-----------|
--1-0-----|--0-----|-----------|---------|--3-3-3--|----3-1-3--|--1--------|
------2---|----0---|--0-2-2-0--|--0------|---------|-----------|----0------|
----------|--------|-----------|---------|---------|-----------|------2-3--|
----------|--------|-----------|---------|---------|-----------|-----------|
----------|--------|-----------|---------|---------|-----------|-----------|

                                                          < < <     mf
--------3-|--------|--0--------|----------|----------|----------|----------|
----0-3---|--3-3-3-|----3-1-3--|--1-------|----------|--0-3-3-3-|--0-----0-|
--2-------|--------|-----------|----0-----|--0---0-2-|----------|----2-0---|
----------|--------|-----------|------2-3-|----3-----|----------|----------|
----------|--------|-----------|----------|----------|----------|----------|
----------|--------|-----------|----------|----------|----------|----------|

                                                                   f
----------|--0-0--------|--------|----------|----------|---------|---------|
--0-----1-|------1-0----|----0-1-|--0-------|----------|----0-2--|--3-3-3--|
----2-2---|----------2--|--2-----|----2-0-0-|--0-0-----|---------|---------|
----------|-------------|--------|----------|------3-3-|--3------|---------|
----------|-------------|--------|----------|----------|---------|---------|
----------|-------------|--------|----------|----------|---------|---------|

                                                  > > >    > > > >    mp
----------|-----------|--0-0--------|--------|----------|----------|-------|
--0-----0-|--0-----1--|------1-0----|----0-1-|--0-------|----------|-------|
----2-0---|----2-2----|----------2--|--2-----|----2-0-0-|--0-0---0-|---0---|
----------|-----------|-------------|--------|----------|------3---|-------|
----------|-----------|-------------|--------|----------|----------|-------|
----------|-----------|-------------|--------|----------|----------|-------|

 mf
----------|-------|-----------|-------|---------|-------|-----------|------|
--0---0---|--1-0--|----0------|----0--|--0---0--|--1-0--|----0------|--0---|
----2-----|-------|--2---0-2--|--2----|----2----|-------|--2---0-2--|------|
----------|-------|-----------|-------|---------|-------|-----------|------|
----------|-------|-----------|-------|---------|-------|-----------|------|
----------|-------|-----------|-------|---------|-------|-----------|------|

  < < <                                                      > > >   >      
----------|--0----|-----------|-------|---------|-------|-----------|------|
--3-3-3---|----0--|--0-3-3----|----1--|--1-0----|--0----|--------0--|--0---|
----------|-------|--------2--|--2----|------2--|----0--|--0-2-2----|------|
----------|-------|-----------|-------|---------|-------|-----------|------|
----------|-------|-----------|-------|---------|-------|-----------|------|
----------|-------|-----------|-------|---------|-------|-----------|------|

mp< < <
----------|--0----|-----------|-------|---------|-------|-----------|------|
--3-3-3---|----0--|--0-3-3----|----1--|--1-0----|--0----|-----------|------|
----------|-------|--------2--|--2----|------2--|----0--|--0-2-2-0--|--0---|
----------|-------|-----------|-------|---------|-------|-----------|------|
----------|-------|-----------|-------|---------|-------|-----------|------|
----------|-------|-----------|-------|---------|-------|-----------|------|

100% right (so I think) 

Legend:
mf=mezzo forte
f=forte
mp=mezzo piano
p=piano
<=crescendo
>=descrecendo
Tap to rate this tab
# A B C D E F G H I J K L M N O P Q R S T U V W X Y Z