Song name
# A B C D E F G H I J K L M N O P Q R S T U V W X Y Z

Jean Wyclef - Gone Till November tab

Title:  Gone Till November
Artist: Wyclef Jean
Album:  The Carnival

transcribed by Rafael Aspiazu  raspiazu@t-online.de

I am not a fan of Wyclef Jean, but I think this song is quite easy and I was
bored, so I transcribed it.

I really donno if this is the intro, but it sounds as it belongs to
this song.

e--------------------------------------------------------------|
B-----------2------------2--------------------2--0-------------|
G--1-1-2-4----4-2-1-2-4-----4-2-1-2-1---------------2-1-2-1----|
D--------------------------------------2---------------------2-|
A--------------------------------------------------------------|
E--------------------------------------------------------------|

e---------0----------------0-------------0---------------------|
B-0-0-2-3----3-2--0--2--3----3-2-0-2-3------3--2---------------|
G-------------------------------------------------4--2-1-2-1---|
D------------------------------------------------------------2-|
A--------------------------------------------------------------|
E--------------------------------------------------------------|

e-------------------------------------------------------------|
B--2---0------------------------------------------------------|
G---------2--1--2--1------------------------------------------|
D----------------------2--------------------------------------|
A-------------------------------------------------------------|
E-------------------------------------------------------------|

HAVE FUN!
Tap to rate this tab
 
# A B C D E F G H I J K L M N O P Q R S T U V W X Y Z