Guitaretab - guitar tabs
Song name
# A B C D E F G H I J K L M N O P Q R S T U V W X Y Z

Jeannie Ortega - Crowded tab

-------------------------------------------------------------------------------
			     Crowded - Jeannie Ortega
-------------------------------------------------------------------------------
Tabbed by: rockstardudeee

Website:
http://hollywoodrecords.go.com/jeannieortega/

Tuning: Standard

Guitar 1
e|----6--3--6-----3-----3---------------------|
B|-------------------6--------6--3--6---------|
G|---------------------------------------5----|
D|--------------------------------------------|
A|--------------------------------------------|
E|--------------------------------------------|

e|----6--3--6-----3-----3---------------------|
B|-------------------6--------6--3--6----6----|
G|--------------------------------------------|
D|--------------------------------------------|
A|--------------------------------------------|
E|--------------------------------------------|
[ Tab from: http://www.guitaretab.com/j/jeannie-ortega/76132.html ]
e|----6--3--6-----3-----3---------------------|
B|-------------------6--------6--3--6---------|
G|---------------------------------------5----|
D|--------------------------------------------|
A|--------------------------------------------|
E|--------------------------------------------|

e|----6--3--6-----3-----3---------------------|
B|-------------------6--------6--3--6---------|
G|---------------------------------------5----|
D|--------------------------------------------|
A|--------------------------------------------|
E|--------------------------------------------|

Guitar 2
e|------------|
B|------------|
G|-----5------|
D|-----5------|
A|-----3------|
E|------------|

e|------------|
B|------------|
G|-----5------|
D|-----5------|
A|-----3------|
E|------------|

e|------------|
B|------------|
G|------------|
D|-----3------|
A|-----3------|
E|-----1------|

e|------------|
B|------------|
G|------------|
D|-----6------|
A|-----6------|
E|-----4------|