Guitaretab - guitar tabs
Song name
# A B C D E F G H I J K L M N O P Q R S T U V W X Y Z

Jebediah - Puck Defender tab

Puck Defender
Tabbed by Craig Harman 

After watching Kevin play this song on the Powderfinger tour I 
just had to play it! It's an oldy but a goody. 

- It's the song that goes: "And I'm picking up the pieces, all the pieces 
that I've found, yeah I'm picking up the pieces from the ground..." 

INTRO\MAIN RIFF - Kevin plays lead for this song and Chris plays rythmn except 
for the lead break. 

Part 1: 
E-----------------------------------------------| 
B-5-3-2-2-2-H-3-P-2-0----5-3-2-2-2-3-3-3 sl>-5--| 
G-------------------------2---------------------| 
D-----------------------------------------------|x ? 
A-----------------------------------------------| 
E-----------------------------------------------| 

Part 2: 
E-----------------------------------------------|
B-3-3-3-2-2-0-0---------------------------------| 
G-----------------2-2---------------------------| 
D-----------------------------------------------|x ? 
A-----------------------------------------------| 
E-----------------------------------------------| 

On the last time of part 2 play: 
[ Tab from: http://www.guitaretab.com/j/jebediah/40037.html ]
E-------------------------------------| 
B-3-3-3-2-2-0-0-2-0-----Slide>>>-14---| 
G----------------------2--------------| 
D-------------------------------------| x 1 
A-------------------------------------| 
E-------------------------------------| 

Chord Progression: A5 B5 D5 E5 A5 B5 D5  

E------------------------------------------------------| 
B------------------------------------------------------| 
G------------7---9-----------7---*---------------------| 
D---7---9---7---9---7---9---7---*----------------------| 
A---7---9---5---7---7---9---5---*----------------------| 
E---5---7------------5---7-----------------------------| 

Verse Chord Progression: A5 B5 D5 E5 A5 B5 D5  
You and me tie ourselves up to the railway, taking off things that catch us up 

E-----------------------------------------------------| 
B-----------------------------------------------------| 
G-----------7---9-----------7---*---------------------| 
D---7---9---7---9---7---9---7---*---------------------| 
A---7---9---5---7---7---9---5---*---------------------| 
E---5---7-----------5---7-----------------------------| 

On the middle bits Kevin just holds D5 

E-------------------------|
B-------------------------| 
G---7---------------------| 
D---7---------------------| 
A---5---------------------|
E-------------------------|
Related for Puck Defender tab
Advertisement will be closed in 10 seconds