Song name
# A B C D E F G H I J K L M N O P Q R S T U V W X Y Z

Jeff Beal - Monk Theme tab

Help us improve GuitareTab! Take a short survey!
---------------------------------------------------------------

   JEFF BEAL - MONK MAIN TITLE THEME (JEFF BEAL) Released on 
               July 12th 2002. It received an Emmy Award on 
               2003. Performed by Grant Geissman.
                
---------------------------------------------------------------

   Tabbed by:PJVillanueva




     People liked very much this tune and when it was replaced 
     by Randy Newman's "It's A Jungle Out There" for the second 
     season many felt really dissapointed.
     It seems that Geissman used an archtop guitar for rythm. 
     Those guitars give a very soft playing and were usually 
     part of the rythm section in old jazz bands. If you want 
     to get that jazzy feel you must hold muted chords in their 
     position and release the pressure while you keep strumming 
     and just press your fingers over the fretboard when chords 
     must ring.


                                                                     

e|------- ------- ------- -------|------- ------- ------- -------|
B|-------------------------------|-----------------------------x-|
G|-------------------------------|-----------------------------x-|
D|-------------------------------|-----------------------------x-|
A|-------------------------------|-----------------------------x-|
E|-------------------------------|-------------------------------|

e|------- ------- ------- -------|------- ------- ------- -------|
B|-------------------------------|----8-------8---9---9---10-----|
G|-------------------------------|-------------------------------|
D|-------------------------------|-------------------------------|
A|-------------------------------|-------------------------------|
E|-------------------------------|-------------------------------|



  Eb6                             Abm
e|------- ------- ------- -------|------- ------- ------- -------|
B|x-------4-------x-------4------|x-------4-------x-------4------|
G|x-------5-------x-------5------|x-------4-------x-------4------|
D|x-------5-------5-------5------|x-------6-------x-------6------|
A|x-------6-------x-------6------|x-------6-------x-------6------|
E|-------------------------------|--------4---------------4------|

e|------- ------- ------- -------|------- ------- ------- -------|
B|11----------8------------------|--------------------------/-8--|
G|----------------10--8-------10-|------------8---7---8----------|
D|-------------------------------|-------------------------------|
A|-------------------------------|-------------------------------|
E|-------------------------------|-------------------------------|



  Eb6                             Abm
e|------- ------- ------- -------|------- ------- ------- -------|
B|x-------4-------x----x--4----x-|4-------4----4-------x--4----x-|
G|x-------5-------x----x--5----x-|4-------4----4-------x--4----x-|
D|x-------5-------x----x--5----x-|6-------6----6-------x--6----x-|
A|x-------6-------x----x--6----x-|6-------6----6-------x--6----x-|
E|-------------------------------|4-------4----4----------4------|

e|------- ------- ------- -------|------- ------- ------- -------|
B|----8--------------------------|----8-------8---9---9---10-----|
G|-------------------------------|-------------------------------|
D|-------------------------------|-------------------------------|
A|-------------------------------|-------------------------------|
E|-------------------------------|-------------------------------|


  00:05
  Eb6                             Abm
e|------- ------- ------- -------|------- ------- ------- -------|
B|4-------4-------x-------4------|4-------4-------x----x--4------|
G|5-------5-------x-------5------|4-------4-------x----x--4------|
D|5-------5-------x-------5------|6-------6-------x----x--6------|
A|6-------6-------x-------6------|6-------6-------x----x--6------|
E|-------------------------------|4-------4---------------4------|

e|------- ------- ------- -------|------- ------- ------- -------|
B|11----------8------------------|--------------------------/-11-|
G|----------------10--8-------10-|------------8---7-------8------|
D|-------------------------------|-------------------------------|
A|-------------------------------|-------------------------------|
E|-------------------------------|-------------------------------|



  Bbm7                            Eb7
e|------- ------- ------- -------|------- ------- ------- -------|
B|6-------6-------6----x--6----x-|4-------4-------x----4--4------|
G|6-------6-------6----x--6----x-|6-------6-------x----6--6------|
D|6-------6-------6----x--6----x-|5-------5-------x----5--5------|
A|8-------8-------8----x--8----x-|6-------6-------x----6--6------|
E|6-------6-------6-------6------|-------------------------------|

e|------- ------- ------- -------|------- ------- ------- -------|
B|-------------------------------|----8-------8---9-------11-----|
G|-------------------------------|-------------------------------|
D|-------------------------------|-------------------------------|
A|-------------------------------|-------------------------------|
E|-------------------------------|-------------------------------|

  00:11
  Ab                              Gdim            C7
e|------- ------- ------- -------|------- ------- ------- -------|
B|4-------4---------------4------|2-------2---------------1------|
G|5-------5---------------5------|3-------3---------------3------|
D|6-------6---------------6------|2-------2---------------2------|
A|6-------6---------------6------|3-------3---------------3------|
E|4-------4---------------4------|3-------3----------------------|

e|------- ------- ------- -------|------- ----9-- 8\----- -------|
B/13-----------------------------|------------------------8---9--|
G|------------13--12--10------9--|-------------------------------|
D|-------------------------------|-------------------------------|
A|-------------------------------|-------------------------------|
E|-------------------------------|-------------------------------|



  Fm                              Gdim
e|------- ------- ------- -------|------- ------- ------- -------|
B|1-------1---x---x---1---1------|2-------2-------2-------2-/----|
G|1-------1---x---x---1---1------|3-------3-------3-------3-/----|
D|3-------3---x---x---3---3------|2-------2-------2-------2-/----|
A|3-------3---x---x---3---3------|3-------3-------3-------3-/----|
E|1-------1-----------1---1------|3-------3-------3-------3-7----|

e|------- ------- ------- -------|------- ------- ------- -------|
B|----9--------------------------|------------8---9-------11-----|
G|-------------------------------|-------------------------------|
D|-------------------------------|-------------------------------|
A|-------------------------------|-------------------------------|
E|-------------------------------|-------------------------------|


  00:15
  F9                                           
e|------- ------- ------- -------|------- ------- ------- -------|
B|8-----------------------8------|----------------8---x---x------|
G|8-----------------------8------|----------------8---x---x------|
D|7-----------------------7------|----------------7---x---x------|
A|8-----------------------8------|----------------8---x---x------|
E|-------------------------------|-------------------------------|

e|------- ------- ------- -------|------- ------- ------- -------|
B/8---------------------/-8------|--------------/-8--------------|
G|--------8---10------8----------|8---10------8-----------8------|
D|-------------------------------|-------------------------------|
A|-------------------------------|-------------------------------|
E|-------------------------------|-------------------------------|



  Bb6                                          C#9/6      D9/6
e|------- ------- ------- -------|------- ------- ------- -------|
B|8-----------------------8------|-------------x--4-------5------|
G|7-----------------------7------|-------------x--3-------4------|
D|6-----------------------6------|-------------x--3-------4------|
A|8-----------------------8------|-------------x--4-------5------|
E|6-----------------------6------|-------------------------------|

e|------- 10--6-- 8------ -------|6------ ------- ------- -------|
B|--------------------9---8---6--|------------8---9-------10-----|
G|-------------------------------|-------------------------------|
D|-------------------------------|-------------------------------|
A|-------------------------------|-------------------------------|
E|-------------------------------|-------------------------------|


  00:20
  Eb9/6                           Abm
e|------- ------- ------- -------|------- ------- ------- -------|
B|6-------6-------x----6--6------|4-------4-------x----4--4----x-|
G|5-------5-------x----5--5------|4-------4-------x----4--4----x-|
D|5-------5-------x----5--5------|6-------6-------x----6--6----x-|
A|6-------6-------x----6--6------|6-------6-------x----6--6----x-|
E|-------------------------------|4-------4------------4--4------|

e|------- ------- ------- -------|------- ------- ------- -------|
B|11----------8------------------|--------------------------/-8--|
G|----------------10--8-------10-|------------8---7---8----------|
D|-------------------------------|-------------------------------|
A|-------------------------------|-------------------------------|
E|-------------------------------|-------------------------------|



  Eb6                             Abm
e|------- ------- ------- -------|------- ------- ------- -------|
B|4-------4-------x----4--4----x-|4-------4-------x----4--4------|
G|5-------5-------x----5--5----x-|4-------4-------x----4--4------|
D|5-------5-------x----5--5----x-|6-------6-------x----6--6------|
A|6-------6-------x----6--6----x-|6-------6-------x----6--6------|
E|-------------------------------|4-------4------------4--4------|

e|------- ------- ------- -------|------- ------- ------- -------|
B|----8--------------------------|----8-------8---9-------10-----|
G|-------------------------------|-------------------------------|
D|-------------------------------|-------------------------------|
A|-------------------------------|-------------------------------|
E|-------------------------------|-------------------------------|


  00:25
  Eb6                             Abm
e|------- ------- ------- -------|------- ------- ------- -------|
B|4-------4------------4--4------|x-------4-------x-------4------|
G|5-------5------------5--5------|x-------4-------x-------4------|
D|5-------5------------5--5------|x-------6-------x-------6------|
A|6-------6------------6--6------|x-------6-------x-------6------|
E|-------------------------------|--------4---------------4------|

e|------- ------- ------- -------|------- ------- ------- -------|
B|11----------8------------------|--------------------------/-11-|
G|----------------10--8-------10-|------------8---7-------8------|
D|-------------------------------|-------------------------------|
A|-------------------------------|-------------------------------|
E|-------------------------------|-------------------------------|



  Bbm7                            Eb7
e|------- ------- ------- -------|------- ------- ------- -------|
B|x-------6-------x-------6---x--|-----4----------4-------4----x-|
G|x-------6-------x-------6---x--|-----6----------6-------6----x-|
D|x-------6-------x-------6---x--|-----5----------5-------5----x-|
A|x-------8-------x-------8---x--|-----6----------6-------6----x-|
E|--------6---------------6------|-------------------------------|

e|------- ------- ------- -------|------- ------- ------- -------|
B|-------------------------------|----8-------8---9-------11-----|
G|-------------------------------|-------------------------------|
D|-------------------------------|-------------------------------|
A|-------------------------------|-------------------------------|
E|-------------------------------|-------------------------------|


  00:30
  Am7b5                           D7
e|------- ------- ------- -------|------- ------- ------- -------|
B|4-------4-------x-------4------|x-------3-------x-------3----x-|
G|5-------5-------x-------5------|x-------5-------x-------5----x-|
D|5-------5-------x-------5------|x-------4-------x-------4----x-|
A|6-------6-------x-------6------|x-------5-------x-------5----x-|
E|5-------5-------x-------5------|-------------------------------|
  T
e|------- ------- ------- -------|13----- ----11- 10----- -------|
B/13--------------13---12---13---|------------------------13--11-|
G|-------------------------------|-------------------------------|
D|-------------------------------|-------------------------------|
A|-------------------------------|-------------------------------|
E|-------------------------------|-------------------------------|



  Gm7b5                           C7
e|------- ------- ------- -------|------- ------- ------- -------|
B|x-------2-------x----x--2------|1-------1-------1----x--1------|
G|x-------3-------x----x--3------|3-------3-------3----x--3------|
D|x-------3-------x----x--3------|2-------2-------2----x--2------|
A|x-------4-------x----x--4------|3-------3-------3----x--3------|
E|--------3---------------4------|-------------------------------|
  T
e|------- ------- ------- -------|------- ------- ------- -------|
B|----11-------------------------|------------8---9-------11-----|
G|-------------------------------|-------------------------------|
D|-------------------------------|-------------------------------|
A|-------------------------------|-------------------------------|
E|-------------------------------|-------------------------------|



  00:35
  F9                                           
e|------- ------- ------- -------|------- ------- ------- -------|
B|8-----------------------8------|----------------8--------------|
G|8-----------------------8------|----------------8--------------|
D|7-----------------------7------|----------------7--------------|
A|8-----------------------8------|----------------8--------------|
E|-------------------------------|-------------------------------|

e|------- ------- ------- -------|------- ------- ------- -------|
B/8---------------------/-8------|--------------/-8--------------|
G|--------8---10------8----------|8---10------------------8------|
D|-------------------------------|-------------------------------|
A|-------------------------------|-------------------------------|
E|-------------------------------|-------------------------------|




  Bb7                                                         D9/6                                         
e|------- ------- ------- -------|------- ------- ------- -------|
B|6-----------------------6------|----------------6---x--------5/|
G|7-----------------------7------|----------------7---x--------4/|
D|6-----------------------6------|----------------6---x--------4/|
A|8-----------------------8------|----------------8---x--------5-|
E|6-----------------------6------|----------------6--------------|

e|------- 10--6-- 8------ -------|6------ ------- ------- -------|
B|--------------------9---8---6--|------------8---9-------10-----|
G|-------------------------------|-------------------------------|
D|-------------------------------|-------------------------------|
A|-------------------------------|-------------------------------|
E|-------------------------------|-------------------------------|


  00:40
  Eb9/6                           Abm
e|------- ------- ------- -------|------- ------- ------- -------|
B|6-------6-------x----x--6------|x-------4-------x-------4------|
G|5-------5-------x----x--5------|x-------4-------x-------4------|
D|5-------5-------x----x--5------|x-------6-------x-------6------|
A|6-------6-------x----x--6------|x-------6-------x-------6------|
E|-------------------------------|--------4---------------4------|

e|------- ------- ------- -------|------- ------- ------- -------|
B|11----------8------------------|--------------------------/-8--|
G|----------------10--8-------10-|------------8---7---8----------|
D|-------------------------------|-------------------------------|
A|-------------------------------|-------------------------------|
E|-------------------------------|-------------------------------|



          Eb6                     Abm
e|------- ------- ------- -------|------- ------- ------- -------|
B|x-------4-------x-------4------|x-------4-------x-------4-/----|
G|x-------5-------x-------5------|x-------4-------x-------4-/----|
D|x-------5-------x-------5------|x-------6-------x-------6-/----|
A|x-------6-------x-------6------|x-------6-------x-------6------|
E|-------------------------------|--------4---------------4------|

e|------- ------- ------- -------|------- ------- ------- -------|
B|----8--------------------------|----8-------8---9---9---10-----|
G|-------------------------------|-------------------------------|
D|-------------------------------|-------------------------------|
A|-------------------------------|-------------------------------|
E|-------------------------------|-------------------------------|



  F9                                              B7           
e|------- ------- ------- -------|------- ------- ------- -------|
B|8-----------------------8------|----------------6--------------|
G|8-----------------------8------|----------------7--------------|
D|7-----------------------7------|----------------6--------------|
A|8-----------------------8------|----------------8--------------|
E|-------------------------------|----------------6--------------|

e|------- ------- ------- -------|------- ------- ------- -------|
B/8---------------------/-8------|--------------/-8--------------|
G|--------8---10------8----------|8---10-------------------------|
D|-------------------------------|----------------------------8--|
A|-------------------------------|-------------------------------|
E|-------------------------------|-------------------------------|


                         (.
              C#9/6       Eb9/6
e|------- ------- ------- -------|------- ------- ------- -------|
B|------------4-----------6------|-------------------------------|
G|------------3-----------5------|-------------------------------|
D|------------3-----------5------|-------------------------------|
A|------------4-----------6------|-------------------------------|
E|-------------------------------|-------------------------------|

e|------- ------- ------- -------|------- ------- ------- -------|
B|-------------------------------|-------------------------------|
G|8------------------------------|-------------------------------|
D|-------------------------------|-------------------------------|
A|-------------------------------|-------------------------------|
E|-------------------------------|-------------------------------|








        T  Thumb
        B  Bend
        R  Release
        /  Slide up
        \  Slide down
        H  Hammer-on
        P  Pull-off
        ~  Vibrato
        +  Harmonic
        x  Mute note
        .  Play note like a dot in standard notation
        ^  Ties two notes together
        (. Pause




Related for Monk Theme tab