Song name
# A B C D E F G H I J K L M N O P Q R S T U V W X Y Z

Jeff Beck - Scatterbrain tab

"Scatterbrain" from Blow By Blow

transcribed by Kelsey Terhorst

E|-------------------------------------------------------------------------|
B|-------------------------------------------------------------------------|
G|---------------3---3-4-3-4-6-4-3-------------------3---3-4-3-4-6-4-3-----|
D|-3-4-3-4-6-4-6---6---------------6-4-3-4-3-4-6-4-6---6---------------6-4-|
A|-------------------------------------------------------------------------|
E|-------------------------------------------------------------------------|

E|-------------------------------------------------------------------------|
B|-------------------------------------------------------------------------|
G|---------------3---3-4-3-4-6-4-3-------------------3---3-4-3-4-6-4-3-----|
D|-3-4-3-4-6-4-6---6---------------6-4-3-4-3-4-6-4-6---6---------------6-5-|
A|-------------------------------------------------------------------------|
E|-------------------------------------------------------------------------|

E|-------------------------------------------------------------------------|
B|-------------------------------------------------------------------------|
G|---------------4---4-5-4-5-7-5-4-------------------4---4-5-4-5-7-5-4-----|
D|-4-5-4-5-7-5-7---7---------------7-5-4-5-4-5-7-5-7---7---------------7-5-|
A|-------------------------------------------------------------------------|
E|-------------------------------------------------------------------------|

E|-------------------------------------------------------------------------|
B|-------------------------------------------------------------------------|
G|---------------6---6-7-6-7-9-7-6-------------------6---6-7-6-7-9-7-6-----|
D|-6-7-6-7-9-7-9---9---------------9-7-6-7-6-7-9-7-9---9---------------9-7-|
A|-------------------------------------------------------------------------|
E|-------------------------------------------------------------------------|

E|-------------------------------------------------------------------------|
B|-------------------------------------------------------------------------|
G|--------------------9----9-11-9-11-12-11-9--------------------------9----|
D|-9-11-9-11-12-11-12---12-------------------12-11-9-11-9-11-12-11-12---12-|
A|-------------------------------------------------------------------------|
E|-------------------------------------------------------------------------|

E|-------------------------11-------7--------4------0------|
B|-------------------------13b15----10b12----7b9----4b5----|
G|-9-11-9-11-12-11-9---------------------------------------|
D|-------------------12-11---------------------------------|
A|---------------------------------------------------------|
E|---------------------------------------------------------|   repeat
Tap to rate this tab
 
# A B C D E F G H I J K L M N O P Q R S T U V W X Y Z