Song name
# A B C D E F G H I J K L M N O P Q R S T U V W X Y Z

Jeff Beck - Hound Dog tab

Artist: Jeff Beck
Song: Hound Dog
Album: Honeymoon in Vegas

Jeff beck did a cover of Hound Dog, and i goes something like this:

|--11-11--11-11-11-|--8--8~--------|--11-11-12-----------8-|--11-10-11-10-11-10-11-|
|------------------|---------10----|------------8-8--10----|-----------------------|
|------------------|---------------|-----------------------|-----------------------|
|------------------|---------------|-----------------------|-----------------------|
|------------------|---------------|-----------------------|-----------------------|
|------------------|---------------|-----------------------|-----------------------|


|--8--8------|--11-12-------8~--|--11~--12-12--10-10-10-10-10-10-10-10-|
|-------10---|--------8-10------|--------------------------------------|
|------------|------------------|--------------------------------------|
|------------|------------------|--------------------------------------|
|------------|------------------|--------------------------------------|
|------------|------------------|--------------------------------------|


|--10/11--10-8-8-10-8-8-8~--|
|---------------------------|
|---------------------------|
|---------------------------|
|---------------------------|
|---------------------------|

The actual times you hit the notes vary, but you can figure it out.

questions? email me : gomets06@optonline.net
Tap to rate this tab
# A B C D E F G H I J K L M N O P Q R S T U V W X Y Z