Song name
# A B C D E F G H I J K L M N O P Q R S T U V W X Y Z

Jeff Beck - Tallyman tab

Jeff Beck
Tallyman
1967 single A side

Tabbed by: Luis Felipe Tellez Campos

Intro: D, G, D 

E---2-2---2---2--|---2-2---2---2--|---3-3---3---3-|---5-5---5---5-|
B----------------|----------------|---------------|---------------|
G----------------|----------------|---------------|---------------|
D-0-----0---0----|----------------|---------------|---------------|
A----------------|-3-----3---3----|-2-----2---2---|-0-----0---0---|
E----------------|----------------|---------------|---------------|

Verse Chords: D, G, D, G, D, A, D

Chorus:

E-9b--8b-7b--|-7-7-7-7-7-7-7-|-----12-12/10----10-----|-2-2-2-2-0-0-0-0-2-2-2-2-0-0-0-0-|
B-10b-9b-8b--|-8-8-8-8-8-8-8-|-/12----------12----12--|-3-3-3-3-2-2-2-2-3-3-3-3-2-2-2-2-|
G------------|-9-9-9-9-9-9-9-|------------------------|-2-2-2-2-2-2-2-2-2-2-2-2-2-2-2-2-|
D------------|---------------|------------------------|-0-0-0-0-2-2-2-2-0-0-0-0-2-2-2-2-|
A------------|---------------|------------------------|---------0-0-0-0---------0-0-0-0-|
E------------|---------------|------------------------|---------------------------------|

Solo:

E------10----10-------------------|-----10---------------|-12h14-12-14-12-10/12-10----10-10-10|
B--/12----12----12br-10----10b----|-/12----12br-10----10-|-------------------------12---------|
G-----------------------12--------|----------------12----|------------------------------------|
D------------------------------12-|----------------------|------------------------------------|
A---------------------------------|----------------------|------------------------------------|
E---------------------------------|----------------------|------------------------------------|

E-12/14-12-14-10/12-10----10-10-----|
B----------------------12-----------|
G-----------------------------------|
D-------------------------------12b-|
A-------------------------------14b-|
E-----------------------------------|

Chorus

Verse

Verse lead:

E-10-10br-10-10-10---7---||----------||--------------||
B------------------9---7-||----------||--------------||
G------------------------||-----9b-7-||----7-9br---7-||
D------------------------||-7-9------||-79-------9---||
A------------------------||----------||--------------||
E------------------------||----------||--------------||

End as Intro.


Any Suggestion???
felipe_shingo@hotmail.com
Tap to rate this tab
# A B C D E F G H I J K L M N O P Q R S T U V W X Y Z