Song name
# A B C D E F G H I J K L M N O P Q R S T U V W X Y Z

Jeff Beck - Hammerhead tab

Tuning: standard

Intro (main guitar and bass riff)

e|---------------------------------------------------------------------------------------|
B|---------------------------------------------------------------------------------------|
G|--------------3 --0--------------------------------------------------------------------|
D|-----0--3--5---------3--0-3---------------0-----------5---3v---------------------------|
A|-----------------------------3v--------------3--5--3-----------------------------------|
E|---------------------------------------------------------------------------------------|


Verse
Tuning:

e|-----------------------------------------------------------------------------------|
B|-----------------------------------------------------------------------------------|
G|-----6b7------8b9--6---------------------------------------------------------------|
D|------------------------9-----7-6--------------------------------------------------|
A|-----------------------------------------------------------------------------------|
E|-----------------------------------------------------------------------------------|

So hard to tab Beck.  Please post adds or corrections for whole album if possible.
Tap to rate this tab
# A B C D E F G H I J K L M N O P Q R S T U V W X Y Z