Song name
# A B C D E F G H I J K L M N O P Q R S T U V W X Y Z

Jeff Beck - Corpus Christi Carol tab

                            Corpus Cristi Carol
                                 Jeff Beck
                             Emotion & Commotion

E|---------------------------------|-------------------------------|
B|---------------------------------|-------------------------------|
G|--10---10--10---9-10-12----10----|--10---10--10---9-10-12--------|
D|------------------------12----12-|------------------------12--14-|
A|---------------------------------|-------------------------------|
E|---------------------------------|-------------------------------|x2



E|---------------------------------|---------------------------------------|
B|--13--13-13----------------------|---13--13-13--13-13-13-13Br------------|
G|-------------14--12/14-----12----|----------------------------14-12--14B-|
D|------------------------15-------|---------------------------------------|
A|---------------------------------|---------------------------------------|
E|---------------------------------|---------------------------------------|

E|---------------------------------|-------------------------------|
B|---------------------------------|-------------------------------|
G|--10---10--10---9-10-12----10----|--10---10--10---9-10-12--------|
D|------------------------12----12-|------------------------12--14-|
A|---------------------------------|-------------------------------|
E|---------------------------------|-------------------------------| x2

E|---------------------------------|-21--21-21--21-21-21B--------|
B|--13--13-13----------------------|----------------------21-18--|
G|-------------14--12/14-----12----|-----------------------------|
D|------------------------15-------|-----------------------------|
A|---------------------------------|-----------------------------|
E|---------------------------------|-----------------------------|


Listen to the song for the right timing.
Tap to rate this tab
 
# A B C D E F G H I J K L M N O P Q R S T U V W X Y Z