Jeff Beck - Shapes Of Things chords

Highlighted       Show chord diagrams
-------------------------------------------------------------------------------
			                    Shapes of things - The Jeff Beck Group
-------------------------------------------------------------------------------

No one had this song tabbed out the way the Jeff Beck Group has done it. I'm
95% certain that it's correct, but I might be wrong at the end of the chorus.
Lemme know if you think it needs changing.

Intro:
   A               G#/A            F#/A            E
e|----------------------------------------------------------------------|
B|----------------------------------------------------------------------|
G|-2-2-2-2-2-2-2-2-2-2-2-2-2-2-2-2-2-2-2-2-2-2-2-2----------------------|
D|-2-2-2-2-2-2-2-2-2-2-2-2-2-2-2-2-2-2-2-2-2-2-2-2-2-2-2-2-2-2-2-2------|
A|-0-0-0-0-0-0-0-0---------------------------------2-2-2-2-2-2-2-2------|
E|-----------------4-4-4-4-4-4-4-4-2-2-2-2-2-2-2-2-0-0-0-0-0-0-0-0------|


Verse
B         E                B       
Shapes of things before my eyes
E              B
Teach me to despise
E                      (back to intro riff)
Will time make men more wiise? 


Chorus
E             D
Come tomorrow, will I be older?
E             D 
Come tomorrow, may be a soldier
E             D                A       B
Come tomorrow, may I be bolder than today?

Exx245x
Bx244xx
Ax02220
Dxx0232
Tap to rate this tab
 
# A B C D E F G H I J K L M N O P Q R S T U V W X Y Z