Song name
# A B C D E F G H I J K L M N O P Q R S T U V W X Y Z

Jeff Beck - Hammerhead tab

Tabbed by Harry Grassom, performed by Jeff Beck in Emotion and Commotion. If you find
any errors or improvements email harry.ipodtouch@googlemail.com

For the most authentic 'Jeff sound', play with standard tuning, high gain and treble,
low mid and medium bass. Use a short (approx 30.0ms) delay with low feedback and level,
with an overdrive stomp and touch of reverb. Play on the neck pickup with low tones and 
use the volume knob to control gain.

The intro is played with a wah pedal and is different everytime jeff plays it, but
revolves around all the notes tabbed below for the remainder of the song. This tab 
starts at
0:38 of the album track.

E|--------------------/-----------------------------------------------------|
B|--------------------/-----------------------------------------------------|
G|------5-------------/-----------------------------------5-----------------|
D|-5h7-----7p5------0-/---------0-------4b(5)p3------5h7-----7p5--------0---|
A|--------------7p0---/-----0h3---0h3-----------------------------7p0-------|
E|--------------------/-----------------------------------------------------|     play
the part after / 4 times

E|------------------------------------------|
B|------------------------------------------|
G|--7v------8b(9)5v-------4v-------4b(5)2v--|
D|------------------------------------------|
A|------------------------------------------|
E|------------------------------------------| x2

E|--------------------/-----------------------------------------------------|
B|--------------------/-----------------------------------------------------|
G|------5-------------/-----------------------------------5-----------------|
D|-5h7-----7p5------0-/---------0-------4b(5)p3------5h7-----7p5--------0---|
A|--------------7p0---/-----0h3---0h3-----------------------------7p0-------|
E|--------------------/-----------------------------------------------------|  play the
part after / twice

E|------------------------------------------|
B|------------------------------------------|
G|--7v------8b(9)5v-------4v-------4b(5)2v--|
D|------------------------------------------|
A|------------------------------------------|
E|------------------------------------------| x2

E|-------------------------------------------------------|
B|-------------------------------------------------------|
G|--10v--------9v--6v----------12v------------10v--9v----|
D|----------------------------------------------------0--|
A|-------------------------------------------------------|
E|-------------------------------------------------------|

E|-------------------------------------------------------|
B|-------------------------------------------------------|
G|-----------------------------------5-------------------|
D|---------0-------4b(5)p3------5h7-----7p5--------0-----|
A|-----0h3---0h3-----------------------------7p0---------|
E|-------------------------------------------------------| x3

E|----------------------------------------------------------|
B|----------------------------------------------------------|
G|--(ph)12b(14)r(12)------12v------12v--12v--12v--12v--12v--|
D|----------------------------------------------------------|
A|----------------------------------------------------------|
E|----------------------------------------------------------|

Jeff then plays solo piece based around frets 9-15 but always finishes with something
like this:

E|--17b(18)----15h17p15----13h15p13--12--------------------|
B|---------------------------------------------------------|
G|---------------------------------------------------------|
D|----------------------------------------------0----------|
A|---------------------------------------------------------|
E|---------------------------------------------------------|

E|-------------------------------------------------------|
B|-------------------------------------------------------|
G|-----------------------------------5-------------------|
D|---------0-------4b(5)p3------5h7-----7p5--------0-----|
A|-----0h3---0h3-----------------------------7p0---------|
E|-------------------------------------------------------| x4

End.
Tap to rate this tab
# A B C D E F G H I J K L M N O P Q R S T U V W X Y Z